System of a down - PeepHole
System of a down
-Spiders-
Here is the Peep Hole Solo cuz some of them have some mistakes
in there Pre Chorus and the Solo so i put this here to u how
its played,and if ur wonder if anybody helped me , My very
good friend Maan and a live concert of it on MTV 2.
h : Hammer on
p : Pull Off
: Slide Down
/ : Slide Up
lr : Let Ring
Pm : Palm mute
Ph : Pinch of Harmonics
b : Bend....1/2:half bend full:full bend..etc..
X : Dead Note
Pre Chorus
D|--------------------------------------------------------------------|
A|-----------------14-14-14-15-15-15----------------14-14-14-15-15-15-|
F|--12-12-12-12-12--------------------14-14-14-14-14------------------|
C|--------------------------------------------------------------------|
G|--------------------------------------------------------------------|
C|--------------------------------------------------------------------|
1/2 1/2 1/2
D|-----------------------------------13-13-13-13-13-13-13-13-13---|
A|-----------------14-14-14-15-15-15----------------15b15b15b15b---|
F|--12-12-12-12-12--------------------------------------------------|
C|------------------------------------------------------------------|
G|------------------------------------------------------------------|
C|------------------------------------------------------------------|
Chorus:
p.m.........
D|----------------------------------------------------------------------|
A|----------------------------------------------------------------------|
F|-----------6---7------------6--7------------6---7---------------------|
C|--5-5-5-5--6---7---7-7-7-7--6--7---5-5-5-5--6---7---7-7-7-7--3-3-3-3--|
G|--5-5-5-5--4---5---7-7-7-7--4--5---5-5-5-5--4---5---7-7-7-7--3-3-3-3--|
C|--5-5-5-5----------7-7-7-7---------5-5-5-5----------7-7-7-7--3-3-3-3--|
Pre Solo:
Low Dist.
D|----------------------------------------------------------------------------|
A|---3--4--3h4p3----3---3--4--3h4p3----3--3--4-3h4p3----3---------------------|
F|----------------5------------------5----------------5----5--3-2--3-2h3p2-0--|
C|----------------------------------------------------------------------------|
G|----------------------------------------------------------------------------|
C|----------------------------------------------------------------------------|
lr.....................
D|------------------------|
A|------------------------|
F|-----0----0----0----0---| Gtr.1
C|--4----4----4----4------| Low Dist.
G|------------------------|
C|------------------------|
| |
| |
| |
| Dist. |
D|------------------------|
A|------------------------| Gtr.2
F|------------------------|
C|--4-4-4-4-4//7-7-7-7-7--|
G|--4-4-4-4-4//7-7-7-7-7--|
C|--4-4-4-4-4//7-7-7-7-7--|

Low Dist.
D|-------------------------------------------------------|
A|--15--16--15h16p15-----15----15--16--15h16p15------15--|
F|-------------------17---------------------------17-----|
C|-------------------------------------------------------|
G|-------------------------------------------------------|
C|-------------------------------------------------------|

D|---------------------------------------------------------|
A|--15--16--15h16p15------15-------------------------------|
F|---------------------17----17--15-14--15-14h15p14--------|
C|----------------------------------------------------17---|
G|---------------------------------------------------------|
C|---------------------------------------------------------|
low dist.
D|------------------------|
A|------------------------|
F|-----0-----0-----0----0-| Gtr.1
C|-16----16----16----16---|
G|------------------------|
C|------------------------|
| |
| |
| |
|Dist. |
D|------------------------|
A|------------------------| Gtr.2
F|------------------------|
C|--4-4-4-4-4//7-7-7-7-7--|
G|--4-4-4-4-4//7-7-7-7-7--|
C|--4-4-4-4-4//7-7-7-7-7--|
Solo:
P.H. .. .. .. . . . 1/2 full full 1 1/2
D|----10---10---10-------9---9---9----------16--16b-16b--16b--16b----------|
A|--8----8----8----8-8-7---7---7---7//14-14-14--14--14---14---14----14----|
F|-------------------------------------------------------------------------|
C|-------------------------------------------------------------------------|
G|-------------------------------------------------------------------------|
C|-------------------------------------------------------------------------|
P.H. .
D|---10---10---10------9---9---9--------8/10-8------6/86---------|
A|-8----8----8---8-87---7---7---7---6-------------4--------6------|
F|-----------------------------------------------------------------|
C|-----------------------------------------------------------------|
G|-----------------------------------------------------------------|
C|-----------------------------------------------------------------|
P.H. .. .. . . . 1/2 Full .. ..
D|---10---10---10---------9---9---9--------16--16--16b-16b-----16-16-16-16----|
A|-8----8----8----8-8-8-7---7---7---7//14--14--14-----------14-------------12-|
F|----------------------------------------------------------------------------|
C|----------------------------------------------------------------------------|
G|----------------------------------------------------------------------------|
C|----------------------------------------------------------------------------|
D|--15---15---15--15-----15--15--15--15----15--15---15--15-----|
A|--14---14---14--14-----14--14--14--14----14--14---14--14----|
F|--12---12---12--12-----12--12--12--12----12--12---12--12---|
C|---------------------------------------------------------------|
G|---------------------------------------------------------------|
C|---------------------------------------------------------------|
D|-------------------------------------------------------------------------|
A|-------------------------------------------------------------------------|
F|--------------6--7--------------6--7--------------6--7-------------6--7--|
C|--5--5--5--5--6--7--7--7--7--7--6--7--5--5--5--5--6--7-7--7--7--7--6--7--|
G|--5--5--5--5--4--5--7--7--7--7--4--5--5--5--5--5--4--5-7--7--7--7--4--5--|
C|--5--5--5--5--------7--7--7--7--------5--5--5--5-------7--7--7--7--------|
P.M. ..........................
D|---------------------------------------------------------------------|
A|---------------------------------------------------------------------|
F|--------------6--7--------------------------------------------6--7---|
C|--5--5--5--5--6--7--7--7--7--7--6-6-6--7-7-7-7--0-5--5--5--5--6--7---|
G|--5--5--5--5--4--5--7--7--7--7--4-4-4--5-5-5-5--0-5--5--5--5--4--5---|
C|--5--5--5--5--------7--7--7--7------------------0-5--5--5--5---------|
D|---------------------------------------------------------------------|
A|---------------------------------------------------------------------|
F|--------------6--7--------------6--7--------------6-----7------------|
C|--7--7--7--7--6--7--5--5--5--5--6--7--7--7--7--7--6-----7---5~~~~~~--|
G|--7--7--7--7--4--5--5--5--5--5--4--5--7--7--7--7--4-----5---5~~~~~~--|
C|--7--7--7--7--------5--5--5--5--------7--7--7--7------------5~~~~~~--|
D|--------------------|
A|--------------------|
F|--------------------|
C|--------------------| The End
G|-----------X----|
C|--(5)~~~---X---|
I hope you injoy these tab's cause it took me a while to get it off
my head and to this computer...anyways Email me if you need anything.
[email protected]




Ваше мнение



Капча