Band: System of a Down
Song: On My Mind (Pictures)
Album: Untitle & Unmastered Advance (Steat This Album!)
Tuning: 1 Step Down Drop C (CGCFAD)
Tabbed by: Joey Hegedusich ([email protected])
I tabbed this song out before it was on Steal This Album!...but they didn't change
anything on the song besides the slide down on the 2nd time they play Verse 3...
so i didn't change the tab...only letting you know this is Pictures...so have fun.
Intro/Verse 1 (*-Palm Muted)
(Part1) |(Part2) |(Part3)
5|-1--0-1-3-|-1--0-1-3-4*-3*-2*-3*-|-1--0-1-3-6*-5*-4*-5*-|
6|-1--0-1-3-|-1--0-1-3-4*-3*-2*-3*-|-1--0-1-3-6*-5*-4*-5*-|
| |
Verse 2 (*-Palm Muted)

(Part4) | | | | | |(play4X)
5|-0*0*0*0*0*0*0*-|(Part2)|(Part4)|(Part3)|(Part4)|(Part2)|(Part4)
6|-0*0*0*0*0*0*0*-|(Part2)|(Part4)|(Part3)|(Part4)|(Part2)|(Part4)
| | | | | |(play4X)
Verse 3
3|-7---12-11---15-14---12-11---8-|RE
4|-x----x--x----x--x----x--x---x-|PE
5|-5---10--9---13-12---10--9---6-|AT
(Repeat Verse 2 and 3)
Chorus (Repeat at end)
4|-1-0---5-4---8-7---5-4---|
5|-1-0---5-4---8-7---5-4---|
6|-1-0---5-4---8-7---5-4---|
Chorus cont. (Palm Muted)(Repeat at end)
5|1-1-0-0-0-0-0-0-5-5-4-4-4-4-4-4-4-8-8-7-7-7-7-7-7-5-5-4-4-4-4-4-4-|
6|1-1-0-0-0-0-0-0-5-5-4-4-4-4-4-4-4-8-8-7-7-7-7-7-7-5-5-4-4-4-4-4-4-|
(Part4)(Part2)(Part4)(Part3)(Part4)(Part2)(Part4 )
Ending (*-Palm Muted)
3|-7---12-11---15-14---12-----------------|
4|-x----x--x----x--x----x--0*0*0*0*0*0*0*-|
5|-5---10--9---13-12---10--0*0*0*0*0*0*0*-|
Sounds good...what do you think?




Ваше мнение



Капча