S.O.A.D - NEEDLES

Tuning: Double Drop D, Down 1 Step (C,G,C,F,A,C)

INTRO: (not positive on this)
|-6p5p0-6p5p0-6p5p0-6p5p0-6-0-6-0-6-5/6-6-0-6-0-6p5p0-6p5p0-6p0-6p0-6p0|
|----------------------------------------------------------------------|
|----------------------------------------------------------------------|
|----------------------------------------------------------------------|
|----------------------------------------------------------------------|
|----------------------------------------------------------------------|
PM . . . . . . . . .

BRIDGE: (slight variations on this throughout song)
|-------------------------------------------------------------------|
|-------------------------------------------------------------------|
|-------------------------------------------------------------------|
|-0-6-6-6-6-6-6-6-6-6-6-6-6-6-6-6-6---------------------------------|
|-0-6-6-6-6-6-6-6-6-6-6-6-6-6-6-6-6-660-660-660-660-660-660-660-660-|
|-0-6-6-6-6-6-6-6-6-6-6-6-6-6-6-6-6-660-660-660-660-660-660-660-660-|
PM ... ... ... ... ... ... ... ...

|---------------------------------|
|---------------------------------|
|---------------------------------|
|---------------------------------|
|-660-660-660-660-660-660-660-660-|
|-660-660-660-660-660-660-660-660-|
PM... ... ... ... ... ... ... ...

VERSE:
|----------------------------------------|
|----------------------------------------|
|----------------------------------------|
|----------------------------------------|
|-5-6--5-6--5-6--5-6--5-6--5-6--5-6--5-6-|
|-5-6--5-6--5-6--5-6--5-6--5-6--5-6--5-6-|

PRECHORUS:
|-----------------------------------------------------|
|-----------------------------------------------------|
|-----------------------------------------------------|
|-5-13\8-13\8-1-13\8-13\8-6-13\8-6-13\8-6-13\8-6-13\8-|
|-5-13\8-13\8-1-13\8-13\8-6-13\8-6-13\8-6-13\8-6-13\8-|
|-5-13\8-13\8-1-13\8-13\8-6-13\8-6-13\8-6-13\8-6-13\8-|

CHORUS:
|---------------------------------|
|---------------------------------|
|---------------------------------|
|-5-5-5-5-3-3-3-3-6-6-6-6-5-5-5-5-|
|-5-5-5-5-3-3-3-3-6-6-6-6-5-5-5-5-|
|-5-5-5-5-3-3-3-3-6-6-6-6-5-5-5-5-|

CHORUS FILL:
|---------------------------|
|---------------------------|
|---------------------------|
|-5-5-5-5-3-3-3-3-6-6-6-6-5-|
|-5-5-5-5-3-3-3-3-6-6-6-6-5-|
|-5-5-5-5-3-3-3-3-6-6-6-6-5-|

INTERLUDE:
|-------------------------------------------------|
|---4p3---4p3---------------3p2---3p2-------------|
|-------------------------------------------------|
|-5-----5-------5-4---5-4-4-----4-------5-4---5-4-|
|-------------6-----6-----------------5-----5-----|
|-------------------------------------------------|
PM.................................................

OUTRO: (palm mute)
|---------------------------------|
|---------------------------------|
|---------------------------------|
|---------------------------------|
|-5-5-6-6-8-8-6-6-5-5-3-3-6-6-5-5-|
|-5-5-6-6-8-8-6-6-5-5-3-3-6-6-5-5-|




Ваше мнение



Капча