Tuning: Drop C
-------------------------------------------------------------------------
Intro
--------------------------------------
--8P7P0---8P7P0---8P7P0-----8P7P0-----
-------------------------------------- A lot of times
--------------------------------------
--------------------------------------
--------------------------------------
Heavy part 1
--------------------------------------
--------------------------------------
--------------------------------------
--4-5-454545454545454-----------------
--4-5-454545454545454-----------------
--4-5-454545454545454-----------------
Heavy Part 2
--------------------------------------
--------------------------------------
--------------------------------------
--5P4P0-5P4P0-5P4P0--5P4P0------------
--5P4P0-5P4P0-5P4P0--5P4P0------------
--5P4P0-5P4P0-5P4P0--5P4P0------------
Verse
--------------------------------------
--------------------------------------
--------------------------------------
--4-5-4-5-4-5-4-5---------------------
--4-5-4-5-4-5-4-5---------------------
--4-5-4-5-4-5-4-5---------------------
"My tapeworm tells me what to do"
--------------------------------------
--------------------------------------
--------------------------------------
--4--4-0--0-3-3-3-3-------------------
--4--4-0--0-3-3-3-3-------------------
--4--4-0--0-3-3-3-3-------------------
"pull the tapeworm outta your ass..HEY"
--------------------------------------
--------------------------------------
--------------------------------------
--4-4-2-2-5-5-4-----------------------
--4-4-2-2-5-5-4-----------------------
--4-4-2-2-5-5-4-----------------------
bridge (w/ chorus effect)
-------------------------------------------------------------------
-------------------------------------------------------------------
-----7-6----7-6-------------------6-5---6-5------------------------
---4------4---------7-6---7-6---3-----3--------6-5---6-5-----------
------------------5-----5--------------------4-----4---------------
-------------------------------------------------------------------
|=========================Pm==========================|
Outro riff
----------------------------------------------
----------------------------------------------
----------------------------------------------
----------------------------------------------
----------------------------------------------
--44-55-77-55-44-22-55-44---------------------
|=========PM============|
I, cannot disguise
All the stomach pains
And the walking with the canes
When you, do come out
And you whisper up to me in your life of tragedy

But I cannot grow
Till you eat the last of me
Oh when will I be free
And you,
A parasite
Just find another host
Just another fool to roast

Cause
You[growl]... My tape worm tells me what to do
You[growl]... My tape worm tells me where to go

Pull the tape worm out of your ass... HEY! [x4]

I cannot deny
All the evil traits and the filling of the crates
When you [you]
Do come out [out]
And you slither up to me your pimpin majesty

But I cannot grow
Till you eat the last of me
Oh when will I be free
And you, (you)
A parasite, (site)
Just find another host
Just another stool to post

Cause
You[growl]... My tape worm tells me what to do
You[growl]... My tape worm tells me where to go

Pull the tape worm out of your ass... HEY! [x3]
Pull the tape worm out of me

Of me

[Daron]
I´m just sitting in my room,
With a needle in my hand
Just waiting for the tomb
Of some old dying man

[Daron and Serj]
Sitting in my room,
With a needle in my hand
Just waiting for the tomb
Of some old dying man

Die [growl]

Cause
You [growl]... My tape worm tells me what to do
You [growl]... My tape worm tells me where to go

Pull the tape worm out of your ass... HEY! [x4]
HEY! [x4]


Ваше мнение



Капча