Song: Metro
Band: S.O.A.D
Album: Toxic Traxx
Tuning: D
A
F
C
G
C


D---12-12-12-12-12-12-12-12-12----|
A---------------------------------|
F---------------------------------|
C---------------------------------|
G---------------------------------|
C---------------------------------|
D---------------------------------|
A---12----------------------------|
F-----11-12-9-11----9-------------|
C----------------12---11--9-------|
G---------------------------------|
C---------------------------------|
D---------------------------------|
A---12----------------------------|
F-----11-12-12-9-11----9----------|
C-------------------12---11--9----|
G---------------------------------|
C---------------------------------|




Ваше мнение



Капча