This song's pretty simple. It's just the Zelda theme

This is the flute part
E|-----------------------------------
B|-----------------------------------
G|-12----12-10--12----12p11h12p11----
D|----12-----------12----------------
A|-----------------------------------
E|-----------------------------------

These are the intro chords.
E|------6--6--6-
B|---3--8--8--8-
G|---4--7--8--7-
D|---5----------
A|--------------
E|--------------

This is the chords strummed under the vocals.
G Gm Eb Gm Cm Bb A Gm G
E|------6--6--6--3--1--0--6-------(7)--
B|---3--8--8--8--4--3--2--8--(3)--(8)--
G|---4--7--8--7--5--3--2--7--(4)--(7)--
D|---5-----------------------(5)-------
A|-------------------------------------
E|-------------------------------------

This is the flute part during the verse.
E|------------15---13-11-11h13p11s10---10-10-10-8-8-10-11--
B|-------15------------------------------------------------
G|-12------------------------------------------------------
D|---------------------------------------------------------
A|---------------------------------------------------------
E|---------------------------------------------------------

E|-11-10-8-6-6-8-10--10-8-6-5---5-5-5-5--5-5-10------------
B|---------------------------------------------------------
G|---------------------------------------------------------
D|---------------------------------------------------------
A|---------------------------------------------------------
E|---------------------------------------------------------

This is the middle flute break.
E|---------------------------------------------------------
B|--------------------------------------------12-15-15-12--
G|-12----12-10--12----12p11h12p11----11-12-14--------------
D|----12-----------12--------------------------------------
A|---------------------------------------------------------
E|---------------------------------------------------------




Ваше мнение



Капча