La Isla Bonita (Live) - System Of A Down
-------------------------------------------------------------------------------

Tabbed by:The Game CFH
Email:[email protected]

Tuning:CGCfad

I didn't see any other tabs on this one so i thought i'd make it.
This is a little vignette of a Madonna song that Daron played at a show
in Lille,France. it's real easy to play,just listen to it once to get the
strumming pattern down. E-Mail me if you have questions or comments. Hope
you enjoy!!!

d|-----------------------------------------------------------------|
a|-----------------------------------------------------------------|
f|--------------x--9----9----9-x-------------x-7----7----7-x-------|
C|--7----7----7-x--9----9----9-x-5----5----5-x-7----7----7-x-------|
G|--7----7----7-x--7----7----7-x-5----5----5-x-5----5----5-x-------|
C|--7----7----7-x--------------x-5----5----5-x-------------x-------|

d|-----------------------------------------------------------------|-|
a|-----------------------------------------------------------------| |
f|--5----5----5-x-------------x-------------x-------------x--------| |-Repeat x5
C|--5----5----5-x-2----2----2-x-5----5----5-x-3----3----3-x--------| |
G|--3----3----3-x-2----2----2-x-5----5----5-x-3----3----3-x--------| |
C|--------------x-2----2----2-x-5----5----5-x-3----3----3-x--------|-|

| x Mute note
=======================================================================




Ваше мнение



Капча