System of a Down - Know
Intro
By:MetalFreak794
|-----|---------------------------------|
|-----|---------------------------------|
|-----|---------------------------------|
|-----|---------------------------------|
|-10-|---0-8-8-0-0-8-8--x4-------------|
|-10-|---0-8-8-0-0-8-8-----------------|
|---------------------------------------|
|---------------------------------------|
|---------------------------------------|
|---------------------------------------|
|--0-8-8-8-0-0-4----x8------------------|
|--0-8-8-8-0-0-4------------------------|
|-10-10--10--10-10-10-------x4----------|
|---------------------------------------|
|---------------------------------------|
|---------------------------------------|
|---------------------------------------|
|---------------------------------------|
|---------------------------------------|
|---------------------------------------|
|---------------------------------------|
|---------------------------------------|
|-0-0-3-0-0-3---x2----------------------|
|-0-0-3-0-0-3---------------------------|
Verse
|-----------------|---------------------|
|-----------------|---------------------|
|--------------x4-|---------------------|
|-0-0-3-0-0-3-----|-3-0000-3-0000--x4---| PM
|-----------------|---------------------|
Chorus
|---------------------------------------|
|---------------------------------------|
|---------------------------------------|
|---------------------------------------|
|-0-2-3-33-3--0-2-3-x-x-x-x-x-----------|
|-0-2-3-33-3--0-2-3-x-x-x-x-x-----------|
Bridge (sounds good if you play the mutes on the 1st fret)
|---------------------------------------------------|
|---------------------------------------------------|
|---------------------------------------------------|
|---------------------------------------------------|
|-xxxxx-xxxxx-xxxxx-xxxxx---00000-00000-00000-00000-|
|-xxxxx-xxxxx-xxxxx-xxxxx---00000-00000-00000-00000-|
|-----------------------------------------|
|---------------10------------------------|
|----------10---10------------------------|
|----------10---10---x4-------------------|
|-----------8---------------10-----------|
|-0---------------------------------------|
|-----------------------------------------|
|-----------------------------------------|
|-----------------------------------------|
|-000000000000000000003333333333333333333-| PM
|-----------------------------------------|
|-----------------------------------------|
|-----------------------------------------|
|-----------------------------------------|
|-----------------------------------------|
|-----------------------------------------|
|-000000000000000000003333333333333333333-|
|-000000000000000000003333333333333333333-|




Ваше мнение



Капча