System Of A Down
Heya guys, I’m the newbie to this thing, and I thought I should start
out by tabbing out InnerVision by System of a Down. A great song by a
great band might I add. They have evolved greatly from their last
album to the new one, and I have the first album in my cd player
constantly. Well, ya guys enjoy this alright? Let me know if you see
anything wrong, I’m gonna try my hardest on this one.
P.S. The tunings for this song is C,G,C,F,A,D. And listen to the song
for the rhythm on some parts. :)
Intro
D|------------------|
A|------------------|
F|------------------|
C|/1-1-1-1-1-1-1-1--|
G|/1-1-1-1-1-1-1-1--|
C|/1-1-1-1-1-1-1-1--|
verse 1
D|-------------------------------|
A|-------------------------------|
F|-------------------------------|
C|-------------------------------|
G|-------------------------------|
C|0-0-0-5-5-5-3-3-3-1-1-1-3-3-1-1|
|_______________________________|* palm muted
verse 2
D|-------------------------------|
A|-------------------------------|
F|-------------------------------|
C|-------------------------------|
G|-------------------------------|
C|0-0-0-5-5-5-7-7-7-3-3-3-7-7-5-5|
|_______________________________| *p.m.
chorus 1
D|-----------------------|
A|----12----------12-----| * let ring
F|-13---12----13----12---|
C|-----------------------|
G|-----------------------|
C|-----------------------|
chorus 2
D|-------------------------------|
A|-------------------------------|
F|-------------------------------|
C|0-0-0-5-5-5-7-7-7-3-3-7-5------|
G|0-0-0-5-5-5-7-7-7-3-3-7-5------|
C|0-0-0-5-5-5-7-7-7-3-3-7-5------|
chorus 3
D|------------------|
A|------------------|
F|------------------|
C|1-1-1-1-1-1-1-1---|
G|1-1-1-1-1-1-1-1---|
C|1-1-1-1-1-1-1-1---|
interlude 1
D|-----------------------------------| note: stacatto and palm mute all notes
A|-----------------------------------|
F|-----------------------------------|
C|1-1-1-1-1-1-1-1-1-1-1-1-1-1-1-1-1-1|
G|1-1-1-1-1-1-1-1-1-1-1-1-1-1-1-1-1-1|
C|1-1-1-1-1-1-1-1-1-1-1-1-1-1-1-1-1-1|
interlude 2
D|------------------------|
A|11-11--11-11-10-10-10-10|
F|x---x---x--x--x--x--x--x|
C|8---8---8--8--7--7--7--7|
G|------------------------|
C|------------------------|
outro 1
D|-------------------|
A|-------------------|
F|-------------------|
C|-------------------|
G|-------------------|
C|0-0-5-5-3-3-1-1-3-1|
|___________________| * p.m.
outro 2
D|-------------------------------|
A|-------------------------------|
F|-------------------------------|
C|-------------------------------|
G|-------------------------------|
C|0-0-0-5-5-5-3-3-3-1-1-1-3-3-1-1|
the order of the song:
intro: 4x
verse1: 4x
verse2: 2x
verse1: 2x
verse2: 2x
chorus1: 1x
chorus2: 2x
chorus3: 2x
verse1: 4x
verse2: 2x
verse1: 2x
verse2: 2x
chorus1: 1x
chorus2: 2x
chorus3: 2x
chorus2: 2x
chorus3: 2x
chorus2: 2x
interlude1: 1x
chorus2: 2x
interlude1: 1x
chorus2: 2x
interlude1: 1x
chorus2: 2x
interlude2: 14x
outro1: 2x
outro2: 2x
tabbed by: Frankie Torres
e-mail: [email protected]




Ваше мнение



Капча