-=I-E-A-I-A-I-O=-
=================
This song's tuning is drop D; then all strings down one whole step
(C-G-C-F-A-D)
Author/Artist: System Of A Down
Album: Steal this Album
Transcribed by: Benjamin Marschner
Email: [email protected]
HP: www.systemofadowntabs.de.vu
A
1:-16----13^16----13^16----13^16----13^16----13^16----|
2:----15-------15-------15-------15-------15-------15-|
3:----------------------------------------------------|
4:----------------------------------------------------|
5:----------------------------------------------------|
6:----------------------------------------------------|
1:-16----13^16----13^16----13^16----13^16----13^16-|
2:----15-------15-------15-------15-------15-------|
3:-------------------------------------------------|
4:-------------------------------------------------|
5:-------------------------------------------------|
6:-------------------------------------------------|
1:16----13^16----13^16----13^16----13^|16----13^16----13^16----13^16----13^|
2:---15-------15-------15-------15----|---15-------15-------15-------15----|
3:------------------------------------|------------------------------------|
4:------------------------------------|------------------------------------|
5:------------------------------------|------------------------------------|
6:------------------------------------|------------------------------------|
1:16----13^16----13^16----13^16----13^|16----13^16----13^16-|
2:---15-------15-------15-------15----|---15-------15-------|
3:------------------------------------|---------------------|
4:------------------------------------|---------------------|
5:------------------------------------|---------------------|
6:------------------------------------|---------------------|
B
1:----------------|
2:----------------|
3:----------------|
4:-1^0--0--1^0--0-|
5:-1^0--0--1^0--0-|
6:-1^0--0--1^0--0-|
C
7x: 1x:
pm............................
1:-----------------|------------|
2:-----------------|------------|
3:-----------------|------------|
4:-1-0-0-0-0-0-0-0-|-1-0-0-0-0--|
5:-1-0-0-0-0-0-0-0-|-1-0-0-0-0--|
6:-1-0-0-0-0-0-0-0-|-1-0-0-0-0--|

D
4x:
1:------------------|
2:------------------|
3:-7-5-7-5----------|
4:------------------|
5:----------5-3-5-3-|
6:------------------|
D'
4x:
1:--------------------|
2:--------------------|
3:-10-9-10-9----------|
4:--------------------|
5:------------8-7-8-7-|
6:--------------------|
E
pm..............................................................
1:---------------------------------|------------------------------|
2:---------------------------------|------------------------------|
3:---------------------------------|------------------------------|
4:---------------------------------|------------------------------|
5:---------------------------------|------------------------------|
6:-0-0-0-0-0-0-3-3-2-2-0-0-0-0-0-0-|-5-5-5-5-5-5-3-3-2-2-0--0--0--|
pm.......................................................
1:-----------------------------|--------------------------|
2:-----------------------------|--------------------------|
3:-----------------------------|--------------------------|
4:-----------------------------|--------------------------|
5:-----------------------------|--------------------------|
6:-0-0-0-0-3-3-2-2-0-0-0-0-0-0-|-5-5-5-5-5-5-3-3-2-2-0--0-|
F
pm......................... ..........................
1:------------------------------|------------------------------|
2:------------------------------|------------------------------|
3:------------------------------|------------------------------|
4:-3----------------------------|-5----------------------------|
5:-3----------------------------|-5----------------------------|
6:-3--0-0-0-0--0-0-0-0--0-0-0-0-|-5--0-0-0-0--0-0-0-0--0-0-0-0-|
pm......................... ..........................
1:------------------------------|------------------------------|
2:------------------------------|------------------------------|
3:------------------------------|------------------------------|
4:-3----------------------------|-5----------------------------|
5:-3----------------------------|-5----------------------------|
6:-3--0-0-0-0--0-0-0-0--0-0-0-0-|-5--0-0-0-0--0-0-0-0--0-0-0-0-|
G
pm.... .. Pm......
1:------------------------------------------------|
2:--------10----10-11-10---------------10--8------|
3:-7--8-7----------------7----7--8-7-7------------|
4:----------------------------------------------0-|
5:------------------------------------------------|
6:------------------------------------------------|
pm.... .. Pm......
1:------------------------------------------------------------------|
2:--------10----10-11-10---------------10--11---11-11-11-11-11b..13-|
3:-7--8-7----------------7----7--8-7-7------------------------------|
4:------------------------------------------------------------------|
5:------------------------------------------------------------------|
6:------------------------------------------------------------------|
H
4x: 3x: 1x:
pm..............................
1:-------------------------------|-------------------------------|-------------------------|
2:-------------------------------|-7--8-7--8-7---8-7---5-5-7-7-7-|-7--8-7--8-7---8-7---5-5-|
3:-7--8-7--8-7---8-7---5-5-7-7-7-|-7--8-7--8-7---8-7---5-5-7-7-7-|-7--8-7--8-7---8-7---5-5-|
4:-------------------------------|-------------------------------|-------------------------|
5:-------------------------------|-------------------------------|-------------------------|
6:-------------------------------|-------------------------------|-------------------------|
I
2x:
1:--------------------------|
2:--------------------------|
3:--------------------------|
4:-0---3-2--0----5---3-2--0-|
5:-0---3-2--0----5---3-2--0-|
6:-0---3-2--0----5---3-2--0-|
ORDER:
=====
A
B 4x
C
D
B 2x
D
B 2x
D'
B 2x
D
B 2x
E
B 4x
D
B 2x
D
B 2x
D'
B 2x
D
B 2x
E
B 4x
F
B 4x
G
H
I
B 4x
F
B 4x




Ваше мнение



Капча