Honey
By System of a Down
tabbed by -- [email protected]
********************

Tuning from low to high: C,G,C,F,A,D
PM - Palm Mute

Intro
~~~~~
|-----------------------------|----------------------------|
|-----------------------------|----------------------------|
|-----------------------------|----------------------------|
|--7-7-7-8-8-8-11-11-11-2-2-2-|-7-7-7-8-8-8-14-14-14-4-4-4-|
|--7-7-7-8-8-8-11-11-11-2-2-2-|-7-7-7-8-8-8-14-14-14-4-4-4-|
|--7-7-7-8-8-8-11-11-11-2-2-2-|-7-7-7-8-8-8-14-14-14-4-4-4-|

Verse
~~~~~
|-----------------------|---------------------|
|-----------------------|---------------------|
|-----------------------|---------------------|
|--7-----8-----11-----2-|-7-----8-----9-----4-|
|--7-----8-----11-----2-|-7-----8-----7-----4-|
|--7-----8-----11-----2-|-7-----8-----------4-|

Chorus
~~~~~~
|-----------------------------|----------------------------|
|-----------------------------|----------------------------|
|-----------------------------|----------------------------|
|--7-7-7-8-8-8-11-11-11-2-2-2-|-7-7-7-8-8-8-14-14-14-4-4-4-|
|--7-7-7-8-8-8-11-11-11-2-2-2-|-7-7-7-8-8-8-14-14-14-4-4-4-|
|--7-7-7-8-8-8-11-11-11-2-2-2-|-7-7-7-8-8-8-14-14-14-4-4-4-|

Verse 2
~~~~~~~
|---------|
|---------|
|---------|
|--10-8-7-|
|--10-8-7-|
|--10-8-7-|
PM -- - -

Bridge
~~~~~~
|----------|---------|
|-------12-|---------|
|-----9----|-10-9----|
|--10------|------10-|
|----------|---------|
|----------|---------|

|---------------------------|-------------------------------------|
|---------------------------|-------------------------------------|
|---------------------------|-------------------------------------|
|---7-7-7-7-7-7-7-7-7-7-7-7-|-10-10-10-11-11-11-12-12-12-13-13-13-|
|---7-7-7-7-7-7-7-7-7-7-7-7-|-10-10-10-11-11-11-12-12-12-13-13-13-|
|---7-7-7-7-7-7-7-7-7-7-7-7-|-10-10-10-11-11-11-12-12-12-13-13-13-|

Verse 3
~~~~~~~
Palm mute lightly
|-----------------------|
|-----------------------|
|-----------------------|
|--8---8---8--8-8-8-8-8-|
|--8---8---8--8-8-8-8-8-|
|--8---8---8--8-8-8-8-8-|
PM - - - - - - - -




Ваше мнение



Капча