SyStEm Of A dOwN
fUcK tHe SyStEm
intro
D----------10p8--
A-------10-------
F----10---------- 3x
C-10-------------
G----------------
C----------------
D-------8h10-8h10-8--
A--------------------
F----10-------------- 1X
C-10-----------------
G--------------------
C--------------------
D----------------------------------
A----------------------------------
F-------------------------- 4x (last 2 times p.m)
C-0-2-3-2-0-2-3-2-0-2-3-2-0-2-3-2--
G-0-2-3-2-0-2-3-2-0-2-3-2-0-2-3-2--
C-0-2-3-2-0-2-3-2-0-2-3-2-0-2-3-2--
D-------------------------------10-8-10-8--
A---------------------10-8-10-8------------
F-----------10-8-10-8---------------------- 1x
C-10-8-10-8--------------------------------
G------------------------------------------
C------------------------------------------
verse
D------------------------------18--18--18--18---
A-----------------------------------------------
F----------------------------------------------- 2x
C-----------------------------------------------
G-3-3-1--3-3-1--3-3-1--3-3-1--------------------
C-----------------------------------------------
D-----------------------
A-----------------------
F----------------------- 4x
C-----------------------
G-3-1--3-1--3-1--3-1----
C-----------------------
D-----------------------------
A-----------------------------
F----------------------------- 4x
C-----------------------------
G-3-3-1--3-3-1--3-3-1--3-3-1--
C-----------------------------
chorus
D----------------------------------
A----------------------------------
F----------------------------------
C----------3--3-----------5-3-5-3--
G-0-2-3-0--3--3--0-2-3-0--5-3-5-3--
C-0-2-3-0--------0-2-3-0-----------
D-------------------------------
A-------------------------------
F-------------------------------
C----------3--3--5-3-5-3-5-3-5--
G-0-2-3-0--3--3--5-3-5-3-5-3-5--
C-0-2-3-0-----------------------
D----------------------------------
A----------------------------------
F----------------------------------
C----------3--3-----------5-3-5-3--
G-0-2-3-0--3--3--0-2-3-0--5-3-5-3--
C-0-2-3-0--------0-2-3-0-----------
D-------------------
A-------------------
F-------------------
C----------3--3-----
G-0-2-3-0--3--3-----
C-0-2-3-0-----------
D----------------------------------
A----------------------------------
F---------------------------------- 2x
C----------------------------------
G-0-2-3-2-0-2-3-2-0-2-3-2-0-2-3-2--
C-0-2-3-2-0-2-3-2-0-2-3-2-0-2-3-2--
pre-verse
D-------------------------10-10-8--
A-----------------10-10-8----------
F---------10-10-8------------------ 2x
C-10-10-8--------------------------
G----------------------------------
C----------------------------------
verse
chorus
bridge
D-------------------------10-10-8--
A-----------------10-10-8----------
F---------10-10-8------------------ 2x
C-10-10-8--------------------------
G----------------------------------
C----------------------------------
D---------------------------------------------------
A---------------------------------------------------
F----------------------------------------10-8-10-8--
C------------10-10-8-10-10-8------------------------
G-10-8-10-8-------------------10-8-10-8-------------
C-10-8-10-8-------------------10-8-10-8-------------
D----------------------------------10-8-10-8--------
A------------10-8-10-8------------------------------
F---------------------------------------------------
C---------------------------------------------------
G-10-8-10-8-------------10-8-10-8-------------------
C-10-8-10-8-------------10-8-10-8-------------------
D---------------------------------------------------------
A---------------------------------------------------------
F----------------------------------------10-10-8-10-10-8--
C------------10-10-8-10-10-8------------------------------
G-10-8-10-8-------------------10-8-10-8-------------------
C-10-8-10-8-------------------10-8-10-8-------------------
D---------------------------------------------------
A---------------------------------------------------
F----------------------------------10-10-8-10-10-8--
C------------10-8-10-8------------------------------
G-10-8-10-8-------------10-8-10-8-------------------
C-10-8-10-8-------------10-8-10-8-------------------
D----------------------------------10-10-8-10-10-8--
A------------10-8-10-8------------------------------
F---------------------------------------------------
C---------------------------------------------------
G-10-8-10-8-------------10-8-10-8-------------------
C-10-8-10-8-------------10-8-10-8-------------------
D---------------------------------------------------
A---------------------------------------------------
F----------------------------------------10-8-10-8--
C------------10-10-8-10-10-8------------------------
G-10-8-10-8-------------------10-8-10-8-------------
C-10-8-10-8-------------------10-8-10-8-------------
D----------------------------------------10-8-10-8--
A------------10-10-8-10-10-8------------------------
F---------------------------------------------------
C---------------------------------------------------
G-10-8-10-8-------------------10-8-10-8-------------
C-10-8-10-8-------------------10-8-10-8-------------
outro
D-----------------------------18--18--18--18---
A----------------------------------------------
F---------------------------------------------- 2x
C----------------------------------------------
G-3-3-1--3-3-1--3-3-1--3-3-1-------------------
C----------------------------------------------
D----------------------------------
A----------------------------------
F---------------------------------- 2x
C----------------------------------
G-0-2-3-2-0-2-3-2-0-2-3-2-0-2-3-2--
C-0-2-3-2-0-2-3-2-0-2-3-2-0-2-3-2--


Ваше мнение



Капча