Intro
-----------------------------------------------------------------
-----------------------------------------------------------------
-----------------------------------------------------------------
---7-------------8-------------9------------10-------------------
---5-5555555555--6-6666666666--7-7777777777-8-8888888888---------
-----------------------------------------------------------------
Heavy (palm mute the second time)
4 times 4 times
--------------|------------------------
--------------|------------------------
--------------|------------------------
--------------|------------------------
--0---0-6-4---|----0---0-4-6-------------------
--0---0-6-4---|----0---0-4-6-------------------
Verse
-------------------------------------------------------------------------------
-------------------------------------------------------------------------------
-------------777--------------888--------------999-----------------101010------
--7------777------8-------888------9-------999-----10-------101010-------------
--5-5555----------6-6666-----------7-77777---------8--88888--------------------
-------------------------------------------------------------------------------
Thats not the whole song but, I tabbed it from memory.
To get the best sound out of this song krank the distortion up.
.... . . ..Later.........




Ваше мнение



Капча