Song: Deer Dance
Band: System of a Down
Album: Toxicity
Tabbed by: Jose Maria (Systen,Psyko)
[email protected]
ALL MY OWN WORK DAMMIT!
Tuning: CGCFAD (Drop D and down a whole step)
Intro:
p.m......................
D--------------------------
A--------------------------
F-------------------------- x4
C--1-1-0--1-1-0--1-1-0--1--
G--1-1-0--1-1-0--1-1-0--1--
C--1-1-0--1-1-0--1-1-0--1--
p.m...............
D------------------
A------------------
F------------------
C--1-0-1-0-1-0-1-0- x2
G--1-0-1-0-1-0-1-0-
C--1-0-1-0-1-0-1-0-
p.m.............
D-----------------
A-----------------
F-----------------
C--1-0-1-0-1-0-1-- x2
G--1-0-1-0-1-0-1--
C--1-0-1-0-1-0-1--
Verse:
(harm)
D------------------------------
A------------------------------
F------------------------------ x6
C----------------------(5.95)--
G------------------------------
C--5/9\5--3/7\3--1/5\1---------
Bridge:
p.m.............................................. (harm)
D--------------------------------------------------------
A--------------------------------------------------------
F--------------------------------------------------------
C--5/9\5--3/7\3--1/5\1--------5/9\5--3/7\3--1/5\1-(5.95)- x2
G----------------------5/9\5-----------------------------
C--------------------------------------------------------
Chorus:
p.m......................
D--------------------------
A--------------------------
F-------------------------- x4
C--1-1-0--1-1-0--1-1-0--1--
G--1-1-0--1-1-0--1-1-0--1--
C--1-1-0--1-1-0--1-1-0--1--
p.m...............
D------------------
A------------------
F------------------
C--1-0-1-0-1-0-1-0- x2
G--1-0-1-0-1-0-1-0-
C--1-0-1-0-1-0-1-0-
p.m.............
D-----------------
A-----------------
F-----------------
C--1-0-1-0-1-0-1-- x2
G--1-0-1-0-1-0-1--
C--1-0-1-0-1-0-1--
Verse
Bridge
Chorus
Middle:
There's lots of multitracked guitars in this section. This is the tab for
the main riff:
p.m.................
F--6-5-----8-6-5----
A------6---------6--
D--------7----------
C-------------------
G-------------------
C-------------------




Ваше мнение



Капча