Band:System Of A Down
Album:Toxicity
Song:Deer Dance
Tuning:Drop C
(C-G-C-F-A-D)
[]-natural harmonic
.=palm mute
/=slide
Intro/Chorus
D-------------------------
A-------------------------
F-------------------------
C-1-1-0--1-1-0--1-1-0--1--
G-1-1-0--1-1-0--1-1-0--1--
C-1-1-0--1-1-0--1-1-0--1--
. . . . . . . . . .
D-------------------------------------------------------------------------------
A-------------------------------------------------------------------------------
F-------------------------------------------------------------------------------
C-1--0--1--0--1--0--1--0--1--0--1--0--1--0--1--0---1--0--1--0--1--0--1----------
G-1--0--1--0--1--0--1--0--1--0--1--0--1--0--1--0---1--0--1--0--1--0--1----------
C-1--0--1--0--1--0--1--0--1--0--1--0--1--0--1--0---1--0--1--0--1--0--1----------
. . . . . . . . . . . . . . . . . . . . . . .
D---------------------------
A---------------------------
F---------------------------
C--1--0--1--0--1--0--1------
G--1--0--1--0--1--0--1------
C--1--0--1--0--1--0--1------
. . . . . . .
Verse
D---------------------------------
A---------------------------------
F------------------[7]------------
C---------------------------------
G---------------------------------
C--5/8--3/7--1/5------------------
Pre-Chorus
D-------------------------------------------------------------------------------
A-------------------------------------------------------------------------------
F-------------------------------------------------------------------------------
C-------------------------------------------------------------------------------
G-------------------------------------------------------------------------------
C--5-5-5-5/8-8-8-8-3-3-3-3/7-7-7-7-1-1-1-1/5-5-5-5-0-0-0-0-0-0-0-0--------------
. . . . . . . . . . . . . . . . . . . . . . . . . . . . . . . .
D-------------------------------------------------------------------------------
A-------------------------------------------------------------------------------
F---------------------------------------------------[7]-------------------------
C-------------------------------------------------------------------------------
G-------------------------------------------------------------------------------
C--5-5-5-5/8-8-8-8-3-3-3-3/7-7-7-7-1-1-1-1/5-5-5-5------------------------------
. . . . . . . . . . . . . . . . . . . . . . . .
Interlude
D-----
A-----
F-----
C-----
G-----
C--5--
Bridge

D-----------------------
A-10-9------13-10-9-----
F------9------------9---
C--------12-------------
G-----------------------
C-----------------------
. . . . . . . .
Bridge Part A
D-----------------------
A-10-9------13-10-9-----
F------9------------9---
C--------12-------------
G-----------------------
C-----------------------
Bridge Part B
D---------------------------------------------------------------------|
A-----------10-9------13-10-9-/11-11-11-11-11/13-13-13-13-13/15-15-15-|
F-15-14-12-------9----------------------------------------------------|
G------------------12-------------------------------------------------|
G---------------------------------------------------------------------|
C---------------------------------------------------------------------|
|-------------------|
|-16-15-13----------|
|----------14-15-14-|
|-------------------|
|-------------------|
|-------------------|

Bridge Part C
D-------------------------|
A-------------------------|
F-15-15-15-14-14-14-14-14-|
C-15-15-15-15-15-15-15-15-|
G-------------------------|
C-------------------------|
End of Bridge
D----
A----
F----
C----
G----
C--5-
Outro
D-----------------------------------------------------------
A-----------------------------------------------------------
F-----------------------------------------------------------
C-1--0--1--0--1--0--1--0--1--0--1--0--1--0--1---------------
G-1--0--1--0--1--0--1--0--1--0--1--0--1--0--1---------------
C-1--0--1--0--1--0--1--0--1--0--1--0--1--0--1---------------
. . . . . . . . . . . . . . .




Ваше мнение



Капча