Guitar 1

7x
D|-------------|
A|-------------|
F||*------------------*----|
C||*------------------*||------5-------------------|
G|-------------|
C|-------------|

----------------------------------|
----------------------------------|
--------------------------||*-----------------------------|
--------------------------||*-----------------------------|
-----------------------5--||---6--4--5--5--6--6--4--5--5--|
-----------------------5--||---6--4--5--5--6--6--4--5--5--|

-----------------------------------------------|
-----------------------------------------------|
-----------------------------------------------|
-----------------------------------------------|
--6--4--5--5--6--6--4--5--5--|--6--4--5--5--6--6--4--5--5--|
--6--4--5--5--6--6--4--5--5--|--6--4--5--5--6--6--4--5--5--|

-----------------------------------|
-----------------------------------|
-----------------------------*||*--------------------------|
-----------------------------*||*--------------------------|
--6--4--5--5--6--6--4--5--5--------|
--6--4--5--5--6--6--4--5--5---||---7--8--7--8--7--8--7--8--|

-----------------------------------------|
-----------------------------------------|
-----------------------------------------|
-----------------------------------------|
-----------------------------------------|
--7--8--7--8--7--8--7--8--|--7--8--7--8--7--8--7--8--|

-----------------------------------------|
-----------------------------------------|
-----------------------------------------|
-----------8--7--------------------------|
-----8--7--------8--7--------------------|
--7--------------------8--|--7--8--7--8--7--8--7--8--|

-----------------------------------------|
-----------------------------------------|
-----------------------------------------|
-----------------------------------------|
-----------------------------------------|
--7--8--7--8--7--8--7--8--|--7--8--7--8--7--8--7--8--|

--------------------------------------------|
--------------------------------------------|
--------------------------------------------|
-----------8--7-----------------------------|
-----8--7--------8--7-----|--5--------4--------|--6--------5--------|
--7--------------------8--|--5--------4--------|--6--------5--------|

--------------------------------------|
--------------------------------------|
--------------------------------------|
--------------------------------------|
--6--4--5--5--6--6--4--5--5--|--6--------5--------|
--6--4--5--5--6--6--4--5--5--|--6--------5--------|

--------------------------------------|
--------------------------------------|
--------------------------------------|
--------------------------------------|
--6--4--5--5--6--6--4--5--5--|--6--------5--------|
--6--4--5--5--6--6--4--5--5--|--6--------5--------|

---------------------------------------||
---------------------------------------||
--------------------------------------*||
--------------------------------------*||
--6--4--5--5--6--6--4--5--5--|--6--------5---------||
--6--4--5--5--6--6--4--5--5--|--6--------5---------||

----------------------------------------------|
----------------------------------------------|
----------------------------------------------|
----------------------------------------------|
--6--4--5--5--6--6--4--5--5--|--6--------5-------------5--|
--6--4--5--5--6--6--4--5--5--|--6--------5-------------5--|

-----------------------------------------------------|
-----------------------------------------------------|
-----------------------------------------------------|
-----------------------------------------------------|
--6--4--5--5--6--6--4--5---------5--|--6--4--5--5--6--6--4--5----|
--6--4--5--5--6--6--4--5---------5--|--6--4--5--5--6--6--4--5----|

----------------------------------------|
----------------------------------------|
----------------------------------------|
----------------------------------------|
--------5--6--4--5----|--------5--6--4--5-----------|
--------5--6--4--5----|--------5--6--4--5-----------|

-------------------------------------------------|
-------------------------------------------------|
-------------------------------------------------|
-------------------------------------------------|
-------------------------------------------------|
----------------8--|--7--8--7--8--7--8--7--8--|--7--8--7--8--7--8--7--8--|

-----------------------------------------|
-----------------------------------------|
-----------------------------------------|
--------------------------8--7-----------|
--------------------------|-----8--7--------8--7-----|
--7--8--7--8--7--8--7--8--|--7--------------------8--|

-----------------------------------------|
-----------------------------------------|
-----------------------------------------|
-----------------------------------------|
-----------------------------------------|
--7--8--7--8--7--8--7--8--|--7--8--7--8--7--8--7--8--|

--------------------------------------------------|
--------------------------------------------------|
--------------------------------------------------|
--------------------------8--7--------------------|
--------------------------|-----8--7--------8--7-----|--5--------4--------|
--7--8--7--8--7--8--7--8--|--7--------------------8--|--5--------4--------|

-----------------------------------------------|
-----------------------------------------------|
-----------------------------------------------|
-----------------------------------------------|
--6--------5--------|--6--4--5--5--6--6--4--5--5--|--6--------5--------|
--6--------5--------|--6--4--5--5--6--6--4--5--5--|--6--------5--------|

--------------------------------------|
--------------------------------------|
--------------------------------------|
--------------------------------------|
--6--4--5--5--6--6--4--5--5--|--6--------5--------|
--6--4--5--5--6--6--4--5--5--|--6--------5--------|

-------------------------------------|
-------------------------------------|
|*-----------------------------------------------|
|*-----------------------------------------------|
|---6--4--5--5--6--6--4--5--5--|--6--4--5--5--6--6--4--5--5--|
|---6--4--5--5--6--6--4--5--5--|--6--4--5--5--6--6--4--5--5--|

------------------------------------------------||
------------------------------------------------||
-----------------------------------------------*||
-----------------------------------------------*||
--6--4--5--5--6--6--4--5--5--|--6--4--5--5--6--6--4--5--5---||
--6--4--5--5--6--6--4--5--5--|--6--4--5--5--6--6--4--5--5---||

------------------||
------------------||
------------------||
------------------||
------------------||
------------------||




Ваше мнение



Капча