DARTS
My second SOAD tab...Hope this helps out!
D :--------------------------------------------------
A :--------------------------------------------------
F :------------------------------------6--6-6-6-6-6-6
C :0--0-0-0-0-0-0-0--6--6-6-6-6-6-6-6--6--6-6-6-6-6-6
G :0--0-0-0-0-0-0-0--6--6-6-6-6-6-6-6--4--4-4-4-4-4-4
C :0--0-0-0-0-0-0-0--6--6-6-6-6-6-6-6----------------
---------------------*1|
---------------------*||
6-------------------- ||
6--5--5-5-5-5-5-5-5-- ||
4--5--5-5-5-5-5-5-5-- ||
---5--5-5-5-5-5-5-5-- ||
******************Pause**************************
D :--------------------------------------------------|
A :----9--9-h10-p9----8--8-h9-p8----9--9-h10-p9---8-~
F :-7--------------6-------------7--------------6-6-~
C :--------------------------------------------------|
G :--------------------------------------------------|
C :--------------------------------------------------|
D :--------------------------------------------------
A :--------------------------------------------------
F :------------------------------------6--6-6-6-6-6-6
C :0--0-0-0-0-0-0-0--6--6-6-6-6-6-6-6--6--6-6-6-6-6-6
G :0--0-0-0-0-0-0-0--6--6-6-6-6-6-6-6--4--4-4-4-4-4-4
C :0--0-0-0-0-0-0-0--6--6-6-6-6-6-6-6----------------
---------------------*1|
---------------------*||
6-------------------- ||
6--5--5-5-5-5-5-5-5-- ||
4--5--5-5-5-5-5-5-5-- ||
---5--5-5-5-5-5-5-5-- ||
D :---------------------------------------------------
A :-10-10-10-10-10-10-10-9-9-9-9-9-9-9-8-8-8-8-8-8-8-7
F :---------------------------------------------------
C :---------------------------------------------------
G :---------------------------------------------------
C :---------------------------------------------------
--------------------12------------11-----------10--
7-7-7-7-7-7--10--10----10---9-9-9----9--8--8-8----8
---------------------------------------------------
---------------------------------------------------
---------------------------------------------------
---------------------------------------------------
----------|
-7-^--r---|
----------|
----------| r= bend up almost a whole step then
----------| relax and then release....
----------|
D :------------------------------------------------*1|
A :------------------------------------------------*||
F :-------------------------------------------------||
C :---6-6-h7-p6-----5-5-h6-p5-----6-6-h7-p6----[***]||
G :5-------------4-------------5------------4--44444||
C :-------------------------------------------------||
[***] A. Harmonic-- move from the rear pickup over
the bridge PU for desired effect.
D :--------------------------------------------------
A :--------------------------------------------------
F :------------------------------------6--6-6-6-6-6-6
C :0--0-0-0-0-0-0-0--6--6-6-6-6-6-6-6--6--6-6-6-6-6-6
G :0--0-0-0-0-0-0-0--6--6-6-6-6-6-6-6--4--4-4-4-4-4-4
C :0--0-0-0-0-0-0-0--6--6-6-6-6-6-6-6----------------
---------------------*1|
---------------------*||
6-------------------- ||
6--5--5-5-5-5-5-5-5-- ||
4--5--5-5-5-5-5-5-5-- ||
---5--5-5-5-5-5-5-5-- ||
D :---------------------------------------------------
A :--------------------------------[******************
F :-----------------6---------------------------------
C :-0-------6-------6-------5--5--0-0-0-0-0-0-0-6-6-6
G :-0-------6-------4-------5--5--0-0-0-0-0-0-0-6-6-6
C :-0-------6---------------5--5--0-0-0-0-0-0-0-6-6-6
--------------------------------------------------|
**********************************]---------------|
--------------------------------------------------|
6-6-6-6-6-6-6-6-6-6-6-5-5-5-5-5-5-5-5-5-5-5-------|
6-6-6-6-4-4-4-4-4-4-4-5-5-5-5-5-5-5-5-5-5-5-------|
6-6-6-6-4-4-4-4-4-4-4-5-5-5-5-5-5-5---------------|
[************] Heavy PM with down and upstrokes
ending with last 4 notes unmuted downstrokes.

**********************Pause*********************

D :--------------------------------------------------
A :--------------------------------------------------
F :------------------------------------6--6-6-6-6-6-6
C :0--0-0-0-0-0-0-0--6--6-6-6-6-6-6-6--6--6-6-6-6-6-6
G :0--0-0-0-0-0-0-0--6--6-6-6-6-6-6-6--4--4-4-4-4-4-4
C :0--0-0-0-0-0-0-0--6--6-6-6-6-6-6-6----------------
-----------------------------------------------*1|
-----------------------------------------------*||
6-----------------------------------------------||
6--5--5-5-5-5-5-5-5---[*********pause *******]--||
4--5--5-5-5-5-5-5-5-----------------------------||
---5--5-5-5-5-5-5-5-----------------------------||
Continue the last phrase above till the end
listen to it for the feel.
Comments & Questions : [email protected]




Ваше мнение



Капча