Ddevil-System Of A Down
System Of A Down
Drop C:
C G C F A D
( ) = harmonics
Intro: 8 bars of Bass and Drums, then
d-----------------------------------------------------------------
a-----------------------------------------------------------------
f-----------------------------------------------------------------
c---(5)-----------------------------------------------------------
g---------------------------------------------------------------5-
c---------------------------------------------------------------5-
Fig. 1
x3
d-------------------------------------------
a-------------------------------------------
f-------------------------------------------
c-------------------------------------------
g-6-4-5-5--6-6-4--5-5--6-4-5-5--6-6-4--5-5--
c-6-4-5-5--6-6-4--5-5--6-4-5-5--6-6-4--5-5--
then,
d-------------------------------------------
a-------------------------------------------
f-------------------------------------------
c-------------------------------------------
g-6-4-5-5--6-6-4--5-5--6-4-5-5--6-6-4--5----
c-6-4-5-5--6-6-4--5-5--6-4-5-5--6-6-4--5----
Verses: Riff A
d-----------------------------------------------------------------
a-----------------------------------------------------------------
f-----------------------------------------------------------------
c-------------------------------------------------------8-7-------
g---------------------------------------------------8-7-----8-7---
c-7-8-7-8-7-8-7-8-7-8-7-8-7-8-7-8-7-8-7-8-7-8-7-8-7-------------8-
pm
Chorus:
d-----------------------------------------------------------------
a-----------------------------------------------------------------
f-----------------------------------------------------------------
c-----------------------------------------------------------------
g-5------4------6------5------6-4-5-5--6-6-4--5-5--6------5-------
c-5------4------6------5------6-4-5-5--6-6-4--5-5--6------5-------
x2 2nd time:
d------------------------------------ ---
a------------------------------------ ---
f------------------------------------ ---
c------------------------------------ -5-
g-6-4-5-5--6-6-4--5-5--6------5------ ---
c-6-4-5-5--6-6-4--5-5--6------5------ ---
Bridge:
gtr. 3
d-----------------------------------------------------------------
a-----------------------------------------------------------------
f-----------------------------------------------------------------
c-6-4-5-5--6-6-4--5------------------------5-6-4-5-5--6-6-4--5----
g-----------------------------------------------------------------
c-----------------------------------------------------------------
gtr. 1&2
d-----------------------------------------------------------------
a-----------------------------------------------------------------
f-----------------------------------------------------------------
c-----------------------------------------------------------------
g--------------------5-6-4-5-5--6-6-4--5--------------------------
c--------------------5-6-4-5-5--6-6-4--5--------------------------
gtr. 3
d-----------------------------------------------------------------
a-----------------------------------------------------------------
f-----------------------------------------------------------------
c----------------------5-6-4-5--------------5-6-4-5---------------
g-----------------------------------------------------------------
c-----------------------------------------------------------------
gtr. 1&2
d-----------------------------------------------------------------
a-----------------------------------------------------------------
f-----------------------------------------------------------------
c-----------------------------------------------------------------
g-5-6-4-5-5--6-6-4-5--------------5-6-4-5-------------5-6-4-5-----
c-5-6-4-5-5--6-6-4-5--------------5-6-4-5-------------5-6-4-5-----
gtr. 3
d--------------------------------------
a--------------------------------------
f--------------------------------------
c-5-6-4-5-5-6-4-5-6-6-4-5-5-6-6-4-5----
g--------------------------------------
c--------------------------------------
End with Chorus
that’s all
trevor jones
[email protected]




Ваше мнение



Капча