CUBErt-System Of A Down
System Of A Down
Drop C:
C G C F A D
Intro: x4
d-15-15-15--15-15-15--15-15-15--15-15-15--15-15-15--15-15-15--15-15-15--15--
a---------------------------------------------------------------------------
f---------------------------------------------------------------------------
c---------------------------------------------------------------------------
g---------------------------------------------------------------------------
c---------------------------------------------------------------------------
x4, pm
d-----------------------------------------------------
a-----------------------------------------------------
f-----------------------------------------------------
c-5-5-5--5-5-5--5-5-5--5-5-5--5-5-5--5-5-5--5-5-5--5--
g-5-5-5--5-5-5--5-5-5--5-5-5--5-5-5--5-5-5--5-5-5--5--
c-5-5-5--5-5-5--5-5-5--5-5-5--5-5-5--5-5-5--5-5-5--5--
Verses:
x3
d--------------------------------------------
a--------------------------------------------
f-3--------1---------------------------------
c-----4--------3----5-5-5--5-5-5--5-5-5--5---
g-------------------5-5-5--5-5-5--5-5-5--5---
c-------------------5-5-5--5-5-5--5-5-5--5---
pm
then,
d-----------------------------------------------
a-----------------------------------------------
f-3--------1------------------------------------
c-----4--------3----5---5--5-5-5--5---5--5-5-5--
g-------------------5---5--5-5-5--5---5--5-5-5--
c-------------------5---5--5-5-5--5---5--5-5-5--
pm
Chorus:
gtr. 1
d-----------------------------------------------------------------
a-----------------------------------------------------------------
f----------------7------------------------------------------------
c-5--------------7----------------7--------------8----------------
g-5--------------5----------------7--------------8----------------
c-5-------------------------------7--------------8----------------
gtr. 2
d-----------------------------------------------------------------
a-----------------------------------------------------------------
f-----------------------------------------------------------------
c-5-----5--5--5--12-----12-12-12--7-----7--7--7--8-----8--8--8----
g-5-----5--5--5--12-----12-12-12--7-----7--7--7--8-----8--8--8----
c-5-----5--5--5--12-----12-12-12--7-----7--7--7--8-----8--8--8----
gtr. 1
d-----------------------------------------------------------------
a-----------------------------------------------------------------
f----------------7--------------6--------------5------------------
c-5--------------7-------8------6-------7------5-------6----------
g-5--------------5-------8------4-------7------3-------6----------
c-5----------------------8--------------7--------------6----------
gtr. 2
d-----------------------------------------------------------------
a-----------------------------------------------------------------
f-----------------------------------------------------------------
c-5-----5--5--5--12------8------11------7------10------6----------
g-5-----5--5--5--12------8------11------7------10------6----------
c-5-----5--5--5--12------8------11------7------10------6----------
Interlude: pm
x2
d-------------------------------------------------------
a-------------------------------------------------------
f-------------------------------------------------------
c-5-5-5--5-5-5--5-5-5--5-----5-5-5--5-5-5--5-5-5--5-----
g-5-5-5--5-5-5--5-5-5--5-----5-5-5--5-5-5--5-5-5--5-----
c-5-5-5--5-5-5--5-5-5--5-----5-5-5--5-5-5--5-5-5--5-----
Interlude 2:
gtr. 1
d-----------------------------------------------------------------
a-----------------------------------------------------------------
f-----------------------------------------------------------------
c-4---4---4---4---4---4---4---4---5---5---5---5---5---5---5---5---
g-4---4---4---4---4---4---4---4---5---5---5---5---5---5---5---5---
c-4---4---4---4---4---4---4---4---5---5---5---5---5---5---5---5---
gtr. 2
d-----------------------------------------------------------------
a-7---7---7---7---7---7---7---7---8---8---8---8---8---8---8---8---
f-6---6---6---6---6---6---6---6---7---7---7---7---7---7---7---7---
c-4---4---4---4---4---4---4---4---5---5---5---5---5---5---5---5---
g-4---4---4---4---4---4---4---4---5---5---5---5---5---5---5---5---
c-4---4---4---4---4---4---4---4---5---5---5---5---5---5---5---5---
Outro Chorus:
gtr. 1
d-----------------------------------------------------------------
a-----------------------------------------------------------------
f----------7-------------------------------7-7-----6-6-----5-5-----
c-5--------7--------7--------8--------5----7-7-8-8-6-6-7-7-5-5-6-6-
g-5--------5--------7--------8--------5----5-5-8-8-4-4-7-7-3-3-6-6-
c-5-----------------7--------8--------5--------8-8-----7-7-----6-6-
pm
gtr. 2
d------------------------------------------------------------------------
a------------------------------------------------------------------------
f------------------------------------------------------------------------
c-5-------12--------7--------8--------5--5-12-12-8-8-11-11-7-7-10-10-6-6-
g-5-------12--------7--------8--------5--5-12-12-8-8-11-11-7-7-10-10-6-6-
c-5-------12--------7--------8--------5--5-12-12-8-8-11-11-7-7-10-10-6-6-
pm
Outro:
d-----------------------------------------------------------------
a-----------------------------------------------------------------
f-------------3---------------3---------------3-------------------
c-5-5-5-5-5-5-----5-5-5-5-5-5-----5-5-5-5-5-5-----5-5-5-5-5-5-5---
g-5-5-5-5-5-5-----5-5-5-5-5-5-----5-5-5-5-5-5-----5-5-5-5-5-5-----
c-5-5-5-5-5-5-----5-5-5-5-5-5-----5-5-5-5-5-5-----5-5-5-5-5-5-----
pm pm pm pm
that’s all
trevor jones
[email protected]




Ваше мнение



Капча