Ok... this is my first time tabbing but this should be easy since i got these
tabs from Daron himself - no joke. I know that there are a lot of different
versions of this song out there, pick whichever you think sounds the best.
And yes, this is pain stakingly(sp?) long

Thanks to: Daron Malakian and Serj Tankian for lyrics and tabs

Dropped-D tuning one whole step down (low to high: C G C F A D)
* = hold for 3 beats

A.Intro
Gtr. 1 (accous.)

D|-----------------------------|
A|-----------------------------|
F|-5--5-5-5-5-5-5--5-5-5-5-5--5|
C|-7--7-7-7-7-7-7--7-7-7-7-7--7|
G|-0--0-0-0-0-0-0--0-0-0-0-0--0|
C|-----------------------------|

D|-----------------------------|
A|-----------------------------|
F|-57--7-7-7-7--7-7-7-7-7--7-7|
C|-79--9-9-9-9--9-9-9-9-9--9-9|
G|-0----0-0-0-0--0-0-0-0-0--0-0|
C|-----------------------------|

D|-----------------------------|
A|-----------------------------|
F|-4--4-4-4-4--4--4-4-4-4--4--4|
C|-5--5-5-5-5--5--5-5-5-5--5--5|
G|-0--0-0-0-0--0--0-0-0-0--0--0|
C|-----------------------------|

D|-----------------------------|
A|-----------------------------|
F|-2--2-2-2-2--2--2--2-2-2-2--2|
C|-3--3-3-3-3--3--3--3-3-3-3--3|
G|-0--0-0-0-0--0--0--0-0-0-0--0|
C|-----------------------------|

Gtr. 1 plays above measures twice
Gtr. 2 (elec w/dist.)
light PM (every note)
D|-----------------------------|
A|-----------------------------|
F|-5-------5--5----5-----------|
C|----7-7-------7-----7--------|
G|-----------------------------|
C|-----------------------------|
* *
D|-----------------------------|
A|-----------------------------|
F|-7-------7--7----7-----------|
C|----9-9-------9-----9-------|
G|-----------------------------|
C|-----------------------------|
* *
D|-----------------------------|
A|-----------------------------|
F|-4-------4--4----4-----------|
C|----5-5-------5-----5-------|
G|-----------------------------|
C|-----------------------------|
* *
Gtr. 4 (elec. w/clean tone)
(trem. pick)
D|-8---------------------------|
A|-10--------------------------|
F|-----------------------------|
C|-----------------------------|
G|-----------------------------|
C|-----------------------------|




Ваше мнение



Капча