I figured these tabs out myself tehy seem right to me. if tehy are nto right soemoen please tell me. i wont quit playin it like that but i can atleast change it.

intro
-------------------------------------------
--11111111--33333333--00000000---00000000--
--22222222--44444444--00000000---22222222--
--00000000--00000000--00000000---33333333--
-------------------------------------------
-------------------------------------------

-------------------------------------------------------- X4
--1---1---1-----3---3---3----0---0---0/1-------------------
----2----2---2----4---4---4----0---0---0/1--2---2---2------
----------------------------------------------3---3---3----
-----------------------------------------------------------
-----------------------------------------------------------
verse1:
-------------------------------------------------- X2
--------------------------------------------------
-33333333-22222222-55555555-44444444------------------
-33333333-22222222-55555555-44444444------------------
-33333333-22222222-55555555-44444444------------------
-33333333-22222222-55555555-44444444------------------
still verse1:
-------------------------------------------------- X 2
------------------------------------------------------
------------------------------------------------------
------------------------------------------------------
------------------------------------------------------
-33333333--22222222--55555555--44444444---------------

still verse1: wake
------------------------------------------------------ X3
---------------------------------------------------------
-22-3333/44--4444/33--3333/44--4444/33-------------------
-22-3333/44--4444/33--3333/44--4444/33-------------------
-22-3333/44--4444/33--3333/44--4444/33-------------------
-22-3333/44--4444/33--3333/44--4444/33-------------------
verse2
-------------------------------------------------------- X4
--1---1---1-----3---3---3----0---0---0/1-------------------
----2----2---2----4---4---4----0---0---0/1--2---2---2------
----------------------------------------------3---3---3----
-----------------------------------------------------------
-----------------------------------------------------------

-------------------------------------------------- X2
--------------------------------------------------
-33333333-22222222-55555555-44444444------------------
-33333333-22222222-55555555-44444444------------------
-33333333-22222222-55555555-44444444------------------
-33333333-22222222-55555555-44444444------------------

repeat the last verse and this above over nad over till u decide its enough... thats all i knwo for now bye.




Ваше мнение



Капча