GREAT JOB ON THE TAB Sergio Moreno BUT IT IS A LITTLE WRONG.
HERE IS THE CORRECT VERSION. IF YOU HAVE ANY QUESTIONS OR COMMENTS JUST EMAIL ME AT [email protected]

ACCOUSTIC INTRO TREMELO
-----------------------------------
-----------------------------------
---5-5-5--7-7-7--4-4-4--2-2-2------
---7-7-7--9-9-9--5-5-5--4-4-4------
---0-0-0--0-0-0--0-0-0--0-0-0------
-----------------------------------
GUITAR 2 COMES IN
---------------------------------------------
---------------------------------------------
--5--5--5---7--7--7---4--4--4---2--2--2------
-7--7--7---9--9--9---5--5--5---4--4--4-------
---------------------------------------------
---------------------------------------------
REPEAT 2X (YES AT THE END THATS ALL 12'S NOT 1-2-1-2)
---------------------------------------------
---------------------------------------------
---------------------------------------------
-7777-6666-9999-12121212---------------------
-7777-6666-9999-12121212---------------------
-7777-6666-9999-12121212---------------------

------------------------------------------
------------------------------------------
------------------------------------------
------------------------------------------
------------------------------------------
-7777777-6666666-9999999-12121212121212---

VERSE PALM MUTE
------------------------------------------
------------------------------------------
------------------------------------------
-777777-6-666666-7-777777-6-666666-7------
-777777-6-666666-7-777777-6-666666-7------
-777777-6-666666-7-777777-6-666666-7------

AND SOMEWHERE IN HERE IS A SOLO THAT GOES LIKE THIS
PALM MUTED
-------------------------------------------------
-------------------------------------------------
--15--17--14--19--19--20-------------------------
-------------------------------------------------
-------------------------------------------------
-------------------------------------------------
THE ONLY THING I CANT SEEM TO REMEMBER IS THE CHORUS,
IM AT SCHOOL RIGHT NOW AS IM RIGHTING THIS SO I CANT
REALY PLAY THIS OUT BUT WHAT I HAVE IS COMPLEATLY RIGHT
I GUARANTEE YOU THAT.




Ваше мнение



Капча