SYSTEM OF A DOWN - CHOP SUEY
Tune down 1 step, drop D (C,G,C,F,A,D)
clean
------------------------------------------------------------------------------
------------------------------------------------------------------------------
-5-/7--4--2-------------------------------------------------------------------
-7--9--5--4-------------------------------------------------------------------
-0--0--0--0-------------------------------------------------------------------
------------------------------------------------------------------------------
slight distortion (overdub 1 on intro) also used later changes to this after
p.m................................................
----------------------------------------------------|------------------------
----------------------------------------------------|------------------------
-5---5---5----7---7---7----4---4---4---2---2---2----|---55---55---5--77-77-7-
---7---7---7----9---9---9----5---5---5---4---4---4--|-7----7----7---9--9--9--
----------------------------------------------------|------------------------
----------------------------------------------------|------------------------
---------------------------------
---------------------------------
---------------------------------
---44---44---4----22---22---2----
-5----5----5----4----4----4------
---------------------------------
Clean (overdub 2 on intro) also used later
----------------------------------------------------------------
-13-15-12--17---18--15--18--------------------------------------
--x--x--x---x----x---x---x--------------------------------------
-10-12--9--14---15--12--15--------------------------------------
----------------------------------------------------------------
----------------------------------------------------------------
heavy distortion
------------------------------------------------------------------------------
------------------------------------------------------------------------------
------------------------------------------------------------------------------
------------------------------------------------------------------------------
-8-7-8-7-8-7-8-7-7-6-7-6-7-6-7-6-10-9-10-9-10-9-10-9--12-11-12-11-12-11-12-11-
-8-7-8-7-8-7-8-7-7-6-7-6-7-6-7-6-10-9-10-9-10-9-10-9--12-11-12-11-12-11-12-11-
------------------------------------------------------------------------------
------------------------------------------------------------------------------
------------------------------------------------------------------------------
------------------------------------------------------------------------------
------------------------------------------------------------------------------
-77777777-66666666-99999999-1212121212121212----------------------------------
------------------------------------------------------------
------------------------------------------------------------
------------------------------------------------------------
------------------------------------------------------------
--8-7---8-7-8-7-8-7-8-7--7-6-----7-6-7-6-7-6-7-6-7-6--------
--8-7---8-7-8-7-8-7-8-7--7-6-----7-6-7-6-7-6-7-6-7-6--------
light distortion (all palm muted)
------------------------------------------------------------------------------
------------------------------------------------------------------------------
--5----5----------7---7----------4---4---------2---2--------------------------
----7----7---7------9---9---9------5---5---5-----4---4---4--------------------
-----------0--------------0--------------0-------------0----------------------
------------------------------------------------------------------------------
distortion
-------------------------------------------------------------------------------
-------------------------------------------------------------------------------
------------10--------10-------------------------------------------------------
--------7---10---10---10-------------------------------------------------------
--------7----8---10----8-------------------------------------------------------
--------7--------10------------------------------------------------------------




Ваше мнение



Капча