This is my first tab. The entire song is medium to heavily distorted
and there are two guitar parts. Enjoy!

Artist: System Of A Down
Album: Steal This Album!
Song: Bubbles
Tabbed by: Chris

Guitar 1
Intro Riff 1 x2
D---------|---------------------------------|---------------------------------|
A---------|---------------------------------|---------------------------------|
F---------|---------------------------------|---------------------------------|
C-6-6-6-6-|-3-5-5-5-3-5-5-5-3-5-5-5-3-5-5-5-|-3-5-5-5-3-5-5-5-3-5-5-5-6-6-6-6-|
G-6-6-6-6-|-3-5-5-5-3-5-5-5-3-5-5-5-3-5-5-5-|-3-5-5-5-3-5-5-5-3-5-5-5-6-6-6-6-|
C-6-6-6-6-|-3-5-5-5-3-5-5-5-3-5-5-5-3-5-5-5-|-3-5-5-5-3-5-5-5-3-5-5-5-6-6-6-6-|
pm..... pm.....

Riff 2 x2
|----------------------------|
|----------------------------|
|----------------------------|
|-3-5--5-3-5--3-5--5-6-6-6-6-|
|-3-5--5-3-5--3-5--5-6-6-6-6-|
|-3-5--5-3-5--3-5--5-6-6-6-6-|
pm........................

Guitar 2
Verse x4
|-----------------------|-------------------------|
|-------44--------------|-------44----66-44----44-|
|-55-77----77-55-444444-|-55-77----77-------77----|
|-----------------------|-------------------------|
|-----------------------|-------------------------|
|-----------------------|-------------------------|

Guitar 1
Riff 3 x2
|---------------------------------|
|---------------------------------|
|---------------------------------|
|-3-5-5-5-3-5-5-5-3-5-5-5-6-6-6-6-|
|-3-5-5-5-3-5-5-5-3-5-5-5-6-6-6-6-|
|-3-5-5-5-3-5-5-5-3-5-5-5-6-6-6-6-|
pm.....

Riff 2 x2

Riff 4 x1
|-----------------|
|-----------------|
|-----------------|
|-5----5--6-6-6-6-|
|-5----5--6-6-6-6-|
|-5----5--6-6-6-6-|
pm.....

Guitar 2
Lick 1 (during Guitar 1's Riff 4)
|-----------------------|-------------------------|
|-------44--------------|-------44----66-44----44-|
|-55-77----77-55-444444-|-55-77----77-------77----|
|-----------------------|-------------------------|
|-----------------------|-------------------------|
|-----------------------|-------------------------|

Verse x4

Guitar 1
Riff 3 x2
Riff 2 x2
Riff 5 x2
|--------------------------|
|--------------------------|
|--------------------------|
|-3-5--5-3-5--5--5-6-6-6-6-|
|--------------------------|
|-3-5--5-3-5--5--5-6-6-6-6-|

Riff 6 x4
|---|
|---|
|---|
|-5-|
|-5-|
|-5-|

Bridge x7
|-----------|
|-----------|
|-----------|
|-----------|
|---1-------|
|-3---5-6-5-|
pm.......

Riff 6 x1
Bridge x7
Riff 6 x1
Riff 3 x2
Riff 2 x2
Outro
|--------------------------|-----------------------------|
|--------------------------|-----------------------------|
|--------------------------|-----------------------------|
|-3-5--5-3-5--5--5-6-6-6-6-|-3-5--5-3-5--5-5-5-5-6-6-6-6-|
|--------------------------|-----------------------------|
|-3-5--5-3-5--5--5-6-6-6-6-|-3-5--5-3-5--5-5-5-5-6-6-6-6-|

That's all! If you have questions or comments you can e-mail me at [email protected]




Ваше мнение



Капча