Для правильной игры настройте гитару таким образом: состройте 6-ю струну с 4-ой(6-ю надо
опустить), а затем все струны опустите на полный шаг(опускать на полный шаг не
обязательно).
Riff 1:
(Distortion guitar)
D5--------------------|
A4--------------------|
F4--------------------| 7x
C4|-8-----------------------------|
G3|-8-----------------------------|
C3|-8--7-7-8-8-7-7-8-8-7-7-8-8-0-0|
Jump!
Bounce!
Down!
Up!
(Muted guitar)
D5--------------------------------------------|
A4--------------------------------------------|
F4--------------------------------------------|
C4|---7-8----7-8----7-8----7-8----6-7----6-7----6-7----6-7| 2x
G3|-5------5------5------5------4------4------4------4----|
C3--------------------------------------------|
I went out on a date,
With a girl, a bit late,
She had so many friends,
Gliding through many hands.
I brought my pogo stick,
Just to show her a trick,
She had so many friends,
Gliding through many hands.
Riff 1.
Jump! Pogo pogo pogo pogo pogo pogo pogo?..
Bounce! Pogo pogo pogo pogo pogo pogo pogo
Down! Pogo pogo pogo ,
Up! Pogo pogo pogo
Jump! pogo bounce pogo down pogo up pogo
(Muted guitar)
D5------------------------------------------------|
A4------------------------------------------------|
F4------------------------------------------------|
C4|---9-10----9-10----9-10----9-10----9-8----9-8----9-8----9-8| 2x
G3|-7-------7-------7-------7-------6------6------6------6----|
C3------------------------------------------------|
Unannounced twister games,
All players with no names,
They lined up double quick,
But just one pogo stick,
Everyone gets to play,
Runaway, expose´,
It was so exotic,
But just one pogo stick.
Riff 1.
Jump! Pogo pogo pogo pogo pogo pogo pogo?..
Bounce! Pogo pogo pogo pogo pogo pogo pogo
Down! Pogo pogo pogo ,
Up! Pogo pogo pogo
Jump! pogo bounce pogo down pogo up pogo
Riff 2:
D5--------------------------------|
A4--------------------------------|
F4|---10----10----10----10----9----9----9----9| 2x
C4|-8-----8-----8-----8-----8----8----8----8--|
G3--------------------------------|
C3--------------------------------|
D5--------------------|
A4--------------------|
F4--------------------| 4x
C4--------------------|
G3|-8-8-10--8-8-10--8-8-10--8-8-10|
C3|-8-8-10--8-8-10--8-8-10--8-8-10|
D5------------------------------------------------|
A4|-x-x-----x-x-----x-x-----x-x-----x-x----x-x----x-x----x-x--|
F4|-x-x-10--x-x-10--x-x-10--x-x-10--x-x-9--x-x-9--x-x-9--x-x-9| 2x
C4|-x-x-8---x-x-8---x-x-8---x-x-8---x-x-8--x-x-8--x-x-8--x-x-8|
G3------------------------------------------------|
C3------------------------------------------------|

Oh, I like to spread you out,
Touching whoever´s behind
Riff 1.
Jump! Pogo pogo pogo pogo pogo pogo pogo?..
Bounce! Pogo pogo pogo pogo pogo pogo pogo
Down! Pogo pogo pogo ,
Up! Pogo pogo pogo
Jump! pogo bounce pogo down pogo up pogo




Ваше мнение



Капча