System Of a Down - ATWA
Tabbed by : FaTSkUnK TOXICITY
Riff 1
4X
e|----------------------------------------------------------------|
B|----------------------------------------------------------------|
G|---1------0-------3-------5--------6--------5-------3-----------|
D|----------------------------------------------------------------|
A|----------------------------------------------------------------|
D|-3---3-1---1/-5----5/-6----6/-8------8-6----6-5----5-3---3--|
Riff 2
4X
e|-------------------------------|
B|-------------------------------|
G|-------------------------------|
D|-3-3-3-3-3-3-3---3-3-3-3-3-3-3-|
A|-3-3-3-3-3-3-3---3-3-3-3-3-3-3-|
D|-3-3-3-3-3-3-3---3-3-3-3-3-3-3-|
-Riff 1 3X
Riff 3
3X
e|-------------------------------|----------------------------|
B|-------------------------------|----------------------------|
G|-------------------------------|----------------------------|
D|-3-3-3-3-3-3-3---3-3-3-3-3-3-3-|-3-3-3-3-3-3-3---3-3-3-3-3h4|
A|-3-3-3-3-3-3-3---3-3-3-3-3-3-3-|-3-3-3-3-3-3-3---3-3-3-3-3h4|
D|-3-3-3-3-3-3-3---3-3-3-3-3-3-3-|-3-3-3-3-3-3-3---3-3-3-3-3h4|
Riff 4
4X
e|----------|
B|----------|
G|----------|
D|-3-3-3--4-|
A|-3-3-3--4-|
D|-3-3-3--4-|
Solo
e|------------------------------------------------------------------|
B|------------------------------------------------------------------|
G|------------------------------------------------------------------|
D|-3--3-3-1--1-1/-5--5-5/-6--6-6/--8---8--8-6--6-6-5--5-5-3--3-3|
A|------------------------------------------------------------------|
D|------------------------------------------------------------------|
e|---------------------------------------------------------------
B|---------------------------------------------------------------
G|---------------------------------------------------------------
D|3-3-3-3-3-3-3-3-1-1-1-1-1-1-1-1-5-5-5-5-5-5-5-5-6-6-6-6-6-6-6-6
A|---------------------------------------------------------------
D|---------------------------------------------------------------
------------------------------------------------------------------|
------------------------------------------------------------------|
------------------------------------------------------------------|
--8-8-8-8-8-8-8-8--6-6-6-6-6-6-6-6-5-5-5-5-5-5-5-5-3-3-3-3-3-3-3-3|
------------------------------------------------------------------|
------------------------------------------------------------------|
Riff 5
X4 ( X2 under the solo )
e|----------------------------------------------------|
B|----------------------------------------------------|
G|----------------------------------------------------|
D|-3---3-1--1--5---5-6---6---8----8-6---6--5---5-3--3-|
A|-3---3-1--1--5---5-6---6---8----8-6---6--5---5-3--3-|
D|-3---3-1--1--5---5-6---6---8----8-6---6--5---5-3--3-|
-Riff 3
-Riff 4




Ваше мнение



Капча