Author/Artist: System Of A Down
Title: ATWA
Album: Toxicity
Transcribed by: Josh Minnish
Tuned C-G-C-F-A-D

|------------------------------------------------------------------------------|
|------------------------------------------------------------------------------|
|------------------------------------------------------------------------------|
|-----8-----7-----10-----12------13------12-----10-----8-----8-----7-----10----|
|------------------------------------------------------------------------------|
|-0-5---53---3/7----7/8----8/10----108----87----75---5-5---53---3/7-------|
Intro
|------------------------------------------------------------------------------|
|------------------------------------------------------------------------------|
|------------------------------------------------------------------------------|
|-----12------13------12-----10-----8-----8-----7-----10-----12------13-----12-|
|------------------------------------------------------------------------------|
|-7/8----8/10----108----87----75---5-5---53---3/7----7/8----8/10----108---|

|------------------------------------------------------------------------------|
|------------------------------------------------------------------------------|
|------------------------------------------------------------------------------|
|-----10-----8-----8-----7-----10-----12------13------12-----10-----8----------|
|------------------------------------------------------------------------------|
|-87----75---5-5---53---3/7----7/8----8/10----108----87----75------------|

|--------------------------------------------------------------------|
|--------------------------------------------------------------------|
|--------------------------------------------------------------------|
|-5555555-5555555-5555555-5555555-5555555-5555555-5555555-5555555----|
|-5555555-5555555-5555555-5555555-5555555-5555555-5555555-5555555----|
|-5555555-5555555-5555555-5555555-5555555-5555555-5555555-5555555----|
Chorus
|-------------------------------------------------------------------|
|-------------------------------------------------------------------|
|-------------------------------------------------------------------|
|-5555555-5555555-5555555-5555555-5555555-5555555-5555555-55555h6---|
|-5555555-5555555-5555555-5555555-5555555-5555555-5555555-55555h6---|
|-5555555-5555555-5555555-5555555-5555555-5555555-5555555-55555h6---|
2nd Chorus
|-----------------------------------|
|-----------------------------------|
|-----------------------------------|
|-5555h6-5555h6-5555h6-5555h6-------|
|-5555h6-5555h6-5555h6-5555h6-------|
|-5555h6-5555h6-5555h6-5555h6-------|
(I don't see)
|-------------------------------------------------------|
|-------------------------------------------------------|
|-12-1210-10/14-14/15-15/17-1715-1514-1412-12-------|
|-------------------------------------------------------|
|-10-108--8-/12-12/13-13/15-1513-1312-1210-10-------|
|-------------------------------------------------------|
Solo
|------------------------------------------------------------------------------|
|------------------------------------------------------------------------------|
|-12-12-12-12-12-12-12-10-10-10-10-10-10-10-10-14-14-14-14-14-14-14-14-15-15---|
|------------------------------------------------------------------------------|
|------------------------------------------------------------------------------|
|------------------------------------------------------------------------------|
This here you use an artificial harmonic
|------------------------------------------------------------------------------|
|------------------------------------------------------------------------------|
|-15-15-15-15-15-15-17-17-17-17-17-17-17-17-15-15-15-15-15-15-15-15-14-14-14---|
|------------------------------------------------------------------------------|
|------------------------------------------------------------------------------|
|------------------------------------------------------------------------------|

|---------------------------------------------------------------|
|---------------------------------------------------------------|
|-14-14-14-14-14-12v--------------------------------------------|
|--------------------5-53-3/7-7/8-8/10-108-87-75-5-5-5-5----|
|--------------------5-53-3/7-7/8-8/10-108-87-75-5-5-5-5----|
|--------------------5-53-3/7-7/8-8/10-108-87-75-5-5-5-5----|

|-------------------------------------------|
|-------------------------------------------|
|-------------------------------------------|
|-5-53-3/7-7/8-8/10-108-87-75-5-5-5-5---|
|-5-53-3/7-7/8-8/10-108-87-75-5-5-5-5---|
|-5-53-3/7-7/8-8/10-108-87-75-5-5-5-5---|

|---------------------------------------------------------------------|
|---------------------------------------------------------------------|
|---------------------------------------------------------------------|
|-5555555-5555555-5555555-5555555-5555555-5555555-5555555-55555h6-----|
|-5555555-5555555-5555555-5555555-5555555-5555555-5555555-55555h6-----|
|-5555555-5555555-5555555-5555555-5555555-5555555-5555555-55555h6-----|


|---------------------------------------------|
|---------------------------------------------|
|---------------------------------------------|
|-5-5-5-5h6-5-5-5-5h6-5-5-5-5h6-5-5-5-5h6-----|
|-5-5-5-5h6-5-5-5-5h6-5-5-5-5h6-5-5-5-5h6-----|
|-5-5-5-5h6-5-5-5-5h6-5-5-5-5h6-5-5-5-5h6-----|




Ваше мнение



Капча