Tabed BY Edin
Its 100% correct so have fun.
Tuning-D,A,F,C,G,C
Intro/Pre-Chorus
D||-----------------------------------|
A||-15-15-15-15-15-15-15^-15-15-15-15-|
F||-----------------------------------|
C||-----------------------------------|
G||-----------------------------------|
C||-----------------------------------|
|-------------------||---------|
|-------------------||---------|
|*-7-------------7-*||---------|
|*-7-------------7-*||---------|
|--5-------------5--||-3-5-6-5-|
|--x-0-0-0-0-0-0-x--||---------|
VERSE:
|-------------------------------------|
|-------------------------------------|
|-------------------------------------|
|-111-777-000-666-111-555-------------|
|-111-777-000-666-111-555-0-0-0-0-0-0-|
|-111-777-000-666-111-555-0-0-0-0-0-0-|
|------------------------------|
|------------------------------|
|10--9--12--10--14--12--15--14-|
|-x--x---x---x---x---x---x---x-|
|-8--7--10---8--12--10--13--12-|
|-x--x---x---x---x---x---x---x-|
INTRO:
D||-----------------------------------|
A||-15-15-15-15-15-15-15^-15-15-15-15-|
F||-----------------------------------|
C||-----------------------------------|
G||-----------------------------------|
C||-----------------------------------|
CHORUS:
|------------------------------------------------------------|
|------------------------------------------------------------||-15^-|
|------------------------------------------------------------|
|-1--1-111-7--7-777-0--0-000-6--6-666-11--11-111111-5--5-555-||12---|
|-1--1-111-7--7-777-0--0-000-6--6-666-11--11-111111-5--5-555-|
|-1--1-111-7--7-777-0--0-000-6--6-666-11--11-111111-5--5-555-|
|-----------------|
|-----------------|
|-----------------|
|-----------------|
|-0-0-0-0-0-0-0-0-|
|-0-0-0-0-0-0-0-0-|

VERSE
INTRO
CHORUS
BRIDGE:
|-----------------|
|----------15-----|
|-----------------|
|----12-----------|5x
INTRO
CHORUS
BRIDGE




Ваше мнение



Капча