Sonata
Transcribed and tabbed by Noghy
[email protected]
http://members.xoom.com/kansasanthem

Based on a sonata in C minor from Ludwig Von Beethoven, Sonata is downtoned one whole step....

Synth arranged for guitar
E-------------------------------------------------------------------|
B-------------------------------------------------------------------|
G---------------------------17--19----------------------------------|
D-14--12---17---15--14--17----------17~---18-19------------17-------|
A------------------------------------------------17-19-20------16---|
E-------------------------------------------------------------------|

E----------------------------------|
B----------------------------------|
G----------------------------------|
D----------------------------------|
A-20--19--17-----------17----15~---|
E-------------20--19---------------|
guitar with chorus
E-------------------------------------------------------------------|
B-------------------------------------------------------------------|
G-------17-19-20---20b-20-19--19b--17~--/17-16-17-/19-/20--19-20-22-|
D--/17--------------------------------------------------------------|
A-------------------------------------------------------------------|
E-------------------------------------------------------------------|

E-------------------------------------------------------------------------|
B---------------------------------------------------18-20-21-20-18-----18-|
G-22b--22b-22b--22b--22b~~------------------17-19-20---------------20-----|
D-----------------------------------17-19-20------------------------------|
A--------------------------17-18-20---------------------------------------|
E-------------------------------------------------------------------------|
E-------------------------------------------------------------------|
B----18-20-20br-19--------------------------------------------------|
G-20----------------17-19-20--20br--19~---19br--17--18--17h18p17-16-|
D-------------------------------------------------------------------|
A-------------------------------------------------------------------|
E-------------------------------------------------------------------|
E-----------------------------------------------------------------------|
B-20--18h20p18------------------------------------------------------19~-|
G---------------19-17h19p17---------------------------------------------|
D----------------------------17-15h17p15--------------------------------|
A-----------------------------------------17-15h17p15-------------------|
E------------------------------------------------------15--14h15p14-----|




Ваше мнение



Капча