Symphony X - Sea Of Lies
Tabbed By: Rodrigo Salazar
EMail: [email protected]
Album Divine wings of tragedy
Tablature explanation :
/ : slide
h : hammer
p : pull-off
b : bend
br : bend and release
~ : vibrato
pm : palm muting
a.h : artificial harmonic
Tune down 1 step : D G C F A D
Bass Intro

|----------------------------------------------|
|----------------------------------------------|
|----------------------------------------------|
|--8--8-------2--------------------/---8--8--|
|--6--6-------0--------------------/---6--6--|
|----------------------------------------------|


|---------------------------------------------------------------------|
|---------------------------------------------------------------------|
|------------------------------------------------3h7p6h7--------------|
|---------7p5-----8p5---------7p5h7p5----8p5--------------5h8p7h8-----|
|-0-0-0-0-----0-0-----0-0-0-0---------0-0----0-0----------------------|
|---------------------------------------------------------------------|
|---------------------------------------------------------------------|
|---------------------------------------------------------------------|
|-----------------------------------------------------3----3----------|
|---------7p5-----8p5---------7p5h7p5-----5p3---------1----1----------|
|-0-0-0-0-----0-0-----0-0-0-0---------0-0-----0-0---------------------|
|---------------------------------------------------------------------|
p.m
|----------------|
|---------------------------------------------------------------------|
|---------------------------------------------------------------------|
|------------------------------------------------3-7-6-7--------------|
|---------7p5-----8p5---------7p5h7p5----8p5--------------5-8-7-8-----|
|-0-0-0-0-----0-0-----0-0-0-0---------0-0----0-0----------------------|
|---------------------------------------------------------------------|
|---------------------------------------------------------------------|
|-------------------------------8-11-10-11-----------5-8-6-8----------|
|-------------------------------------------6-9-7-9-------------------|
|---------7p5-----8p5----------------------------------------5-8-7-8--|
|-0-0-0-0-----0-0-----0-0-0-0-----------------------------------------|
|---------------------------------------------------------------------|
T T
|---------------------------------------------------------------------|
|---------------------------------------------------------------------|
|-6-9-7-9-------------------------------------------------------------|
|------------------5-8-7-8----------------------------5h8p7h8h12p8p7h8|
|---------5-8-7-8----------4-7-5-7---5h8p7h8h12p8p7h8-----------------|
|---------------------------------------------------------------------|
T T T T T T T T T T
|----------------------------------------------------------------------------------|
|----------------------------------10p8h10p8p6p5h8p6h8p6p5p3h6p5h6p5p3p2h5p3h5p3p2-|
|-6h9p7h9h12p9p7h9h14p9p7p6h7-b-rb-------------------------------------------------|
|----------------------------------------------------------------------------------|
|----------------------------------------------------------------------------------|
|----------------------------------------------------------------------------------|

Verse 1:
||------------------------------------------------------------------|
||------------------------------------------------------------------|
||------------------------------------------------------------------|
||------------------------------------------------------------------|
||-------4-------4---------------------------4-------4--------------|
||-2-2-0-2---2-0-2--2--2--0-0-2--0-0-2---2-0-2---2-0-2---2--2--0--0-|
___________________________________________________________
|1.
|---------------------------------------------------------------|
|---------------------------------------------------------------|
|---------------------------------------------------------------|
|---------------------------------------------------------------|
|-------4------4---------------------------4------4---4--4---2--|
|-2-2-0-2--2-0-2--2--2--0-0-2--0-0-2---2-0-2--2-0-2---2--2---0--|
_____________________________________________________________
|2. a.h
|-------------------------------------------------------------------------------||
|-------------------------------------------------------------------------------||
|-------------------------------------------------------------------------------||
|-------------------------------------------------------------------------------||
|-------4------4---------------------------4---------------4-2h4p2------4-7-4-5~||
|-2-2-0-2--2-0-2--2--2--0-0-2--0-0-2---2-0-2--2-0-2--2-4-5---------5-4-7--------||
harmony
|---------------------------
|--------------------------12-13-/17-13---------------------------------16--------|
|-----------------------15--------------15----------------18----------18--18------|
|--------------------14--------------------14----14-13~-----17------17------17----|
|-10/12~----12-14-15--------------------------15--------------18--18----------18--|
|--------12-----------------------------------------------------20--------------20|
|---------------------------------------------------------------------------------|
a third above
------------------------------------------------------------------------------------|
|------------16-------16-18----16-18-20-18-16-15-------------------------------------|
|-------18-20---18-20-------20-------------------18-16-14----------------------------|
|-----17--------------------------------------------------17-15-13-------------------|
|---18-------------------------------------------------------------17-15-13----------|
|-20------------------------------------------------------------------------16-15-13~|
|------------------------------------------------------------------------------------|Рrйсноrus:
a.h
|-----------------------------------------------|
|-----------------------------------------------|
|-----------------------------------------------|
|-3----5---------6----8-------------------2~~---|
|-1----3----3----4----6----6----4----2----------|
|-----------1--------------4----2----0----------|
Chorus:(X2)
||---------------------------------------------------------------------|
||---------------------------------------------------------------------|
||------------------------------------------------3h7p6h7--------------|
||---------7p5-----8p5---------7p5h7p5----8p5--------------5h8p7h8-----|
||-0-0-0-0-----0-0-----0-0-0-0---------0-0----0-0----------------------|
||---------------------------------------------------------------------|
|---------------------------------------------------------------------||
|---------------------------------------------------------------------||
|-----------------------------------------------------3----3----------||
|---------7p5-----8p5---------7p5h7p5-----5p3---------1----1----------||
|-0-0-0-0-----0-0-----0-0-0-0---------0-0-----0-0---------------------||
|---------------------------------------------------------------------||
End of first chorus only:
|------------------|
|------------------|
|------------------|
|-----------3---3--|
|-0-0-0-0---1---1--|
|------------------|
Verse 2: /w. clean
|------------------------------------7--------------------------------------9--------|
|-------9-10-9---------------7---------------7-----7-9-----9-10-----------10--10-----|
|-----9--------9-----------9---9---9------7----7-------7--------7-------13-------13--|
|---11-----------11------9-------9------9--------9-------9--------9---11-----------11|
|-9--------------------7-------------------------------------------------------------|
|------------------------------------------------------------------------------------|
/w. disto & 1 guitar plays the clean arpeggios above without last chord
|------------------------------------------------------------------|
|------------------------------------------------------------------|
|------------------------------------------------------------------|
|------------------------------------------------------------------|
|-------4-------4---------------------------4-------4--------------|
|-2-2-0-2---2-0-2--2--2--0-0-2--0-0-2---2-0-2---2-0-2---2--2--0--0-|
|----------------------------------------------------------|
|----------------------------------------------------------|
|----------------------------------------------------------|
|---------------------------------7------------------------|
|-------4------4------------------5----------3-------------|
|-2-2-0-2--2-0-2--2--2--0-0-2--0-------------1----------/-|Solo 1 rythm (same as chorus but a fourth below):
||---------------------------------------------------------------------|
||---------------------------------------------------------------------|
||---------------------------------------------------------------------|
||------------------------------------------------3h7p6h7--------------|
||---------7p5-----8p5---------7p5h7p5----8p5--------------5h8p7h8-----|
||-0-0-0-0-----0-0-----0-0-0-0---------0-0----0-0----------------------|
|---------------------------------------------------------------------||
|---------------------------------------------------------------------||
|---------------------------------------------------------------------||
|-----------------------------------------------------3----3----------||
|---------7p5-----8p5---------7p5h7p5-----5p3---------1----1----------||
|-0-0-0-0-----0-0-----0-0-0-0---------0-0-----0-0---------------------||
Solo 1:
1 a.h 1
|----------------------------------------13-12----------------13-16-13----------|
|--15--b---15b-~-------12----------12-15-------12----------12----------12-------|
|-------------------13----13----13----------------13----13----------------13----|
|----------------------------14----------------------14----------------------14-|
|-------------------------------------------------------------------------------|
|-------------------------------------------------------------------------------|
T
|-------16-17-19-16-17-19-------------------------------------------------------|
|----12-------------------15-17-18----------------------------------------------|
|-13-------------------------------14-16-17-13h14h16p14p13----------------------|
|----------------------------------------------------------15p14p12h14p12h15h18-|
|-------------------------------------------------------------------------------|
|-------------------------------------------------------------------------------|
T T T T T 1
|-------------------13h19p16h19p16----------------------------------------------|
|-12h15h18----------------------------------------------------------------------|
|----------13h16h19-----------------19p16p13--14b~---------------------13-14-16-|
|--------------------------------------------------------------12-14-15---------|
|-----------------------------------------------------12-14-15------------------|
|-------------------------------------------------------------------------------|
1/2
|------------------------------------------------------17-16-/20-19-23b~-~-----|
|------------------------------------------------/18-17-------------------------|
|-14-13---14-13----------------------------14-17--------------------------------|
|------15-------15-14-12-15-14b-rb~-----15--------------------------------------|
|-------------------------------------------------------------------------------|
|-------------------------------------------------------------------------------|
|-3-6-5-6-----------------------------------------------------------------------|
|-----------------5-8-6-8-------------------------------------------------------|
|---------6-9-7-9------------------6-9-7-9--------------------------------------|
|-------------------------5-8-7-8------------------5-8-7-8-----------7----------|
|------------------------------------------5-8-7-8---------4-7-5-7---5----------|
|-------------------------------------------------------------------------------|
Interlude rythm:
|--------------------------------------------------|
|--------------------------------------------------|
|--------------------------------------------------|
|-9--9------9------9--7--9--9------9---------------|
|-7--7--7-7-7--7-7-7--5--7--7--7-7-7--7-7-9-10-----|
|--------------------------------------------------|
Tapping interlude: (X2)

T T T T T T T
||-15p14p12---------------------12h14h15p14p12---------------------12h14h15p14p12-|
||--------------------------------------------------------------------------------|
||----------16p12p11p9h11h12h16----------------16p12p11p9h11h12h16----------------|
||--------------------------------------------------------------------------------|
||--------------------------------------------------------------------------------|
||--------------------------------------------------------------------------------|
T T T T T
|----------------------12h14h15p14p12----------------------12h14h|
|----------------------------------------------------------------|
|-16p12p11p9h11h12h16------------------16p12p11p9h11h12h16-------|
|----------------------------------------------------------------|
|----------------------------------------------------------------|
|----------------------------------------------------------------|
T T T T T T T
|-15p14p12---------------------12h14h15p14p12---------------------12h14h15p14p12-|
|--------------------------------------------------------------------------------|
|----------17p12p11p9h11h12h17----------------17p12p11p9h11h12h17----------------|
|--------------------------------------------------------------------------------|
|--------------------------------------------------------------------------------|
|--------------------------------------------------------------------------------|
T T T T T
|----------------------12h14h15p14p12----------------------10h12h|
|----------------------------------------------------------------|
|-17p12p11p9h11h12h17------------------17p12p11p9h11h12h17-------|
|----------------------------------------------------------------|
|----------------------------------------------------------------|
|----------------------------------------------------------------|
T T T T T T T
|-14p12p10---------------------10h12h14p12p10---------------------10h12h14p12p10-|
|--------------------------------------------------------------------------------|
|----------14p12p11p9h11h12h14----------------14p12p11p9h11h12h14----------------|
|--------------------------------------------------------------------------------|
|--------------------------------------------------------------------------------|
|--------------------------------------------------------------------------------|
T T T T T
|----------------------10h12h14p12p10----------------------12h14h|
|----------------------------------------------------------------|
|-14p12p11p9h11h12h14------------------14p12p11p9h11h12h14-------|
|----------------------------------------------------------------|
|----------------------------------------------------------------|
|----------------------------------------------------------------| T T T T T T T
|-15p14p12---------------------12h14h15p14p12---------------------12h14h15p14p12-|
|--------------------------------------------------------------------------------|
|----------16p12p11p9h11h12h16----------------16p12p11p9h11h12h16----------------|
|--------------------------------------------------------------------------------|
|--------------------------------------------------------------------------------|
|--------------------------------------------------------------------------------|
|2nd time stop here|
|
T T T T | T
|----------------------12h14h15p14p12-----------|----------12h14h||
|----------------------------------------------------------------||
|-16p12p11p9h11h12h16------------------16p12p11p9h11h12h16-------||
|----------------------------------------------------------------||
|----------------------------------------------------------------||
|----------------------------------------------------------------||

Solo 2 rythm:
|---------------------------------------------------------------------------------|
|---------------------------------------------------------------------------------|
|---------------------------------------------------------------------------------|
|-9-----7-----9-----------6-----4-----4-----2-----6-----4-----7------9-7-5--------|
|-7-----5-----7-----6-----4-----2-----1-----0-----4-----2-----5------------9-7-5--|
|-------------------4-------------------------------------------------------------|2nd solo w/ wha
1/2 1/2
|------------------------------------------------------------17-20-17--------------|
|------------------------------------------------------17-18----------18-17-------|
|-----------11-12-11~--------15b-rb-14~-----------14-17----------------------17-14-|
|-13b-rb-14------------14-12------------15-14-15-----------------------------------|
|----------------------------------------------------------------------------------|
|----------------------------------------------------------------------------------|
|----------------------------------------------------------------------------------|
|----------------------------------------------------------------------------------|
|---------------------------/9--/-12--/-14--/-16---/-19--/-21--/20-----------------|
|-15-14----------------------------------------------------------------------------|
|-------15-12---------------/7--/-10--/-12--/-14---/-17--/-19--/18---11-----------|
|-------------13-12-13-12----------------------------------------------------------|
T T T T T
|------------------------------------------14h16p14p11----------11h16p14p11h18p11|
|--------------------------------------------------------------------------------|
|--------11h13h16p13p11-------------11h13--------------13p11h13------------------|
|--------------------------------------------------------------------------------|
|-h14h21----------------18p14p11h14----------------------------------------------|
|--------------------------------------------------------------------------------|
p.m p.m
|-------------| |-------------|
|-h14p11-------------------------------------------------------------------------|
|--------------------------------------------------------------------------------|
|--------13p11----8-9-6~---8h9p8----------9-8-----------------------------------|
|---------------------------------9~--9-11-----9------------------------14-13-11-|
|------------------------------------------------11-9~------12-11-9--------------|
|-------------------------------------------------------------------12-----------|
|----------------------------17-16-14-------------------------------/21~---------|
|----------------17-16-14-------------17-16-14-----------------------------------|
|----14-13-11-------------14-------------------16-14-13/-------------------------|
|-------------14-----------------------------------------------------------------|
|-12-----------------------------------------------------------------------------|
|--------------------------------------------------------------------------------|
many times (b rb)
|---------16-21-19--19h21p16----19-21b-21b-rb-b-rb----------20-17h20p19~--------|
|-----17------------------------------------------------------------------------|
|-18----------------------------------------------------------------------------|
|-------------------------------------------------------------------------------|
|-------------------------------------------------------------------------------|
|-------------------------------------------------------------------------------|
2nd interlude rythm: E C D E E C DTapping interlude but each cycle is played 2 times instead of 4
this ends:
|-14p12h14p12-12p10h12p10-14p12h14p1210-15p14h15p1412-14p12h14p12--15p14h15p|
|--------------------------------------------------------------------------------|
|--------------------------------------------------------------------------------|
|--------------------------------------------------------------------------------|
|--------------------------------------------------------------------------------|
|--------------------------------------------------------------------------------|
1 1
|-14-17p15h17p1514-19p17h19p1715-17b-17b~-|
|--------------------------------------------|
|--------------------------------------------|
|--------------------------------------------|
|--------------------------------------------|
|--------------------------------------------|
Chorus a fourth below (solo 1 rythm)




Ваше мнение



Капча