Symphony X - Candlelight Fantasia

A really beautiful song with a lot of acoustic arpeggios. Don't bother about the key of this song since it's changing all the time.
Try to get the notes to ring out as often as you can.............. The time-beat is 6/8. I don't know if they've tuned down for this
one, but the transcription starts out in the F# minor key. For that key, you don't have to tune down, to play to the record.
I've also included the chords in ( )'s.

(F#m) (G#dim) (F#m) (G#dim)
E -----------------------------------------------------2-4-2-------2-4-2--------------------------------
H ----2-3-2-------2-3-2-------6-7-6-------6-7-6------2-------2---2-------2-----6-7-6-------6-7-6--------
G --2-------2---2-------2---4-------4---4--------4-2-----------2-------------4-------4---4-------4------
D 4-----------4-----------6-----------6------------------------------------6-----------6----------------
A ------------------------------------------------------------------------------------------------------
E ------------------------------------------------------------------------------------------------------

(F#m) (Fdim) (G#) (C#m) (G#) (C#m) (A)
E ----2-4-2-------4-5-4-------4-5-4-----4-5-4-------4-5-4-------4-5-4-------5-6-5-----------------------
H --2-------2---3-------3---4---------5-------5---4-------4---5-------5---5-------5---------------------
G 2-----------4-----------5---------6-----------5-----------6-----------6-------------------------------
D ------------------------------------------------------------------------------------------------------
A ------------------------------------------------------------------------------------------------------
E ------------------------------------------------------------------------------------------------------

(Dm) (A#dim) (Dm) (A#dim)
E ----5-6-5-------5-6-5-----9-10-9-------9-10-9-----10-12-10------10-12-10-------9-10-9-------9-10-9----
H --6-------6---6---------8--------8---8----------10--------10--10--------10---8--------8---8--------8--
G 7-----------7---------9------------9----------10------------10-------------9------------9-------------
D ------------------------------------------------------------------------------------------------------
A ------------------------------------------------------------------------------------------------------
E ------------------------------------------------------------------------------------------------------

(Dm) (C#dim) (E) (Am)
E ----10-12-10------12-13-12------12-13-12--------------------------------------------------------------
H --10--------10--11--------11--12--------12-----5-6-5--------------------------------------------------
G 10------------12------------13---------------5-------5------------------------------------------------
D -------------------------------------------7-----------7......(4 times)-------------------------------
A ------------------------------------------------------------------------------------------------------
E ------------------------------------------------------------------------------------------------------

To be continued........




Ваше мнение



Капча