Underwater
Switchfoot
CD: the legend of chin
C 1997 re:think
Tab: Marcus Campbell

Intro>
e|-----------------------------------------------------
b|-----------------------------------------------------
g|---7-----7-----7-----7---7-----7-----7---------------
d|---7-----7-----7-----7---7-----7-----7---------------
a|-5-----------5---------5-----------5---------3-4-(5)-
E|-----5-7---5-----5-7-------5-7---5-----5-6-7---------

Verses>
e|-----------------------------------------------------
b|-----------------------------------------------------
g|---7-----7-----4---6---7---3---6---9---7---3---4---6-
d|---7-----7-----3---5---7---3---5---9---7---3---3---5-
a|-5---------------------------------------------------
E|-----5-7---5-3---5---7---2---5---9---7---2---3---5---

e|--------------------------------
b|--------------------------------
g|---7-----7-----7----------------
d|---7-----7-----7----------------
a|-5-----------5---------3-4-(5)--
E|-----5-7---5-----5-6-7----------
VS1
it's in her head
it's in her mind
she can't believe it
can't believe she's running out of time

and any hold that she can find
something to lean on
everybody fails her half the time
VS2
just like clockwork she climbs down
into her bottle
no one dowen there cares to know her name
VS3
she's underwater but she won't drown
she can't believe it
and everyone she meets feels just the same

it takes all day to get to night
what makes the sunset
and what makes it go back to where it came

CHANNEL>
d|--9---8---7---6-
a|-(9)-(9)-(7)-(7)
E|--7---6---5---4-

nothing to be she's already been

D G
e|---| |---|
b|---| |---|
g|-7-| |-2-|
d|-7-| |-0-|
a|-5-| |---|
E|---| |-3-|
D G D G D G D (E|--2--0--|)
plenty of time plenty of time plenty of time

CHORUS>
G D F#/A# Bm7 A7 G7
e|-5-| |-2-| |---| |---| |---| |---|
b|-5-| |-0-| |---| |---| |---| |---|
g|-0-| |-2-| |---| |-7-| |-6-| |-4-|
d|-0-| |-0-| |-8-| |-7-| |-5-| |-3-|
a|---| |---| |-9-| |---| |---| |---|
E|-3-| |---| |-6-| |-7-| |-5-| |-3-|

G D
she's underwater nowhere now
G D
underwater upside down
G D (F#/A#) Bm7
the rising tide won't find her now
A7 G7
she's lost and found
A7
underwater

CHANNEL>

BREAKDOWN> Bm D G x3 then F#7

CHORUS> +
Bm7 A7 G7
now she's upside down
Bm7 A7 G7
now she's six feet down
D Bm7
underwater

Intro riff>>>>




Ваше мнение



Капча