Title: Something More
Artist: Switchfoot
Album: New Way to be Human
(c) Meadowgreen Music/Sugar Pete Songs/ASCAP/Khamara's Last Songs/BMI
Tabbed by: Samuel Johansson
Another great tabbing by me.
Intro (no bass)
Verse
G |---------------------------------------------------------------------------------------------------
D |---------------------------------------------------------------------------------------------------
A |-2---2-2--2--4--2--4--0---5-4-------2----4-2---2--4-4--2---7---0----5-4- (1st) 7-6---:||(2nd) 4-4-4
E |---------------------------------------------------------------------------------------------------
Pre-Chorus
G |---------------------------------------------------------------------------------------------------
D |---------------------------------------------------------------------------------------------------
A |-----4-4-2-2-0-0-0-0--------------------4-4-2-2-0-0-0-0-2-2-2-2------------------------------------
E |-4-4-------------------0-0-0-0-----4-4-------------------------------------------------------------
Chorus
G |---------------------------------------------------------------------------------------------------
D |---------------------------------------------------------------------------------------------------
A |-7-7-7-7-7-7-7-7--4-4-4-4-4-4-6-7-------------4-7-------------0-7-6--------------------------------
E |----------------------------------6-6-6-6-6-6-----0-0--2--4-4--------------------------------------
G |---------------------------------------------------------------------------------------------------
D |---------------------------------------------------------------------------------------------------
A |-2-2-2-2-2-2-4-7--4-4-4-4-4-4-6-7-------------4-7----------------2-2---7--6------------------------
E |----------------------------------6-6-6-6-6-6-----0-0--2-2--4-4------------------------------------
Verse, bass comes in on the second part (5th bar or something). Listen to the cd in you're unsure.
Pre-Chorus
Chorus
Stick: play first half of verse progression once, then:
G |----|----------------------------------------------------------------------------------------------
D |----|----------------------------------------------------------------------------------------------
A |-2--|-7----4-7-----4------6-7-----------4-7---------------- 3X ------------------------------------
E |----|-----------------------------6-------------0--------------------------------------------------
then:
G |---------------------------------------------------------------------------------------------------
D |---------------------------------------------------------------------------------------------------
A |-2-2-2-2-2-2-4-7--4-4-4-4-4-4-6-7-------------4-7----------------2-2---7--6------------------------
E |----------------------------------6-6-6-6-6-6-----0-0--2-2--4-4------------------------------------
into chorus.
If you find any errors, please mail me at [email protected]




Ваше мнение



Капча