tabber: miguel aka moogle
this is a really good song by switch foot
the guitar playing is really cool and it
is easy to learn and play. If you get confused
with the letters then there will be backup
parts to the ones with the letters and it will
sound close.
thee tuning is dropped d
D-a-d-g-b-e
key
/= slide up
= slide down
h= hammer on
p= pull off
b= bend string
r= release bent string
~= let note ring
intro
e:-------------------------------------------------------
b:-------------------------------------------------------
g:--4-4-4---------2-2-2----------------------------------
d:--4-4-4--4b-4r--2-2-2--4b-4r--2-2-2--4b-4r--5-5-5--7-7-
a:--2-2-2---------0-0-0---------2-2-2---------5-5-5--7-7-
D:------------------------------2-2-2---------5-5-5--7-7-
every one comes in
play intro part
back up guitar plays again intro while lead is in solo
solo
e:------------------------
b:------------------------
g:------------------------
d:--4-5-4-2-0-4-0-------5~
a:----------------4-0-2-5~
D:----------------------5~
verse play once per break
e:----------------------------------------
b:----------------------------------------
g:----------------------------------------
d:--5-0-4-0-2-0-4-5-4-4-0-2-0-4-0-4-5-7-5~
a:--5-0-4-0-2-0-4-5-4-4-0-2-0-4-0-4-5-7-5~
D:--5-0-4-0-2-0-4-5-4-4-0-2-0-4-0-4-5-7-5~
chorus
e:------------------------------------------------------------------------
b:------------------------------------------------------------------------
g:------------------------------------------------------------------------
d:--5-5-5--7-7-7--9-9-9--2-2-2-2--4b-4r-5-5-5--2-2-2--4b-4r--5-5-5--2-2-2-
a:--5-5-5--7-7-7--9-9-9--2-2-2-2--------5-5-5--2-2-2---------5-5-5--2-2-2-
D:--5-5-5--7-7-7--9-9-9--2-2-2-2--------5-5-5--2-2-2---------5-5-5--2-2-2-
order
intro
intro
intro/solo
verse
chorus x2
verse
chorusx2
intro
intro/solo
acoustic unknown




Ваше мнение



Капча