Meant To Live
DROP D TUNING
Intro1
G[444-----------------------------------------------------------------------
D[444-4b5p4--777---------222-4b5p4--5555--77--------------------------------
A[222--------777-9b10p9--222--------5555--77--------------------------------
D[-----------777---------222--------5555--77--------------------------------
Intro2
G[--------------------------------------------------------------------------
D[999----------777----------222-4b5p4--0-2-000-2p0-7------------------------
A[999--9b10p9--777--9b10p9--222--------0-2-000-2p0-7------------------------
D[999----------777----------222--------0-2-000-2p0-7------------------------
Intro3
G[444-----------------------------------------------------------------------
D[444-4b5p4--777---------222-4b5p4--44444444--------------------------------
A[222--------777-9b10p9--222--------44444444--------------------------------
D[-----------777---------222--------44444444--------------------------------
Lead during Intro3
G[-11-|-11b12p11-9----11-----------------------------------------------------
D[----|------------12----12-11-----------------------------------------------
A[----|------------------------12-12b13--------------------------------------
D[----|----------------------------------------------------------------------
Verse1
G[-4-------------------------------------------------------------------------
D[-5------4-00--2-00--4-00--4-5-4-----4-00--2-00--4-00--4-5-7----------------
A[-5------4-00--2-00--4-00--4-5-4-----4-00--2-00--4-00--4-5-7----------------
D[-5------4-00--2-00--4-00--4-5-4-----4-00--2-00--4-00--4-5-7----------------
G[-4-------------------------------------------------------------------------
D[-5------4-00--2-00--4-00--4-5-4-----4-00--2-00--4-00--4-5-7----------------
A[-5------4-00--2-00--4-00--4-5-4-----4-00--2-00--4-00--4-5-7----------------
D[-5------4-00--2-00--4-00--4-5-4-----4-00--2-00--4-00--4-5-7----------------
Chorus
G[-----****-----****-----****------------------------------------------------
D[-555-5555-777-7777-999-9999-0h222--4b5-------------------------------------
A[-555-xxxx-777-xxxx-999-xxxx-0h222------------------------------------------
D[-555-xxxx-777-xxxx-999-xxxx-0h222------------------------------------------

G[---------------------------------------------------------------------------
D[-555-xxxx-222--4b5-555-xxxx-0h222--4b5-------------------------------------
A[-555-xxxx-222------555-xxxx-0h222------------------------------------------
D[-555-xxxx-222------555-xxxx-0h222------------------------------------------
G[-----****-----****-----****------------------------------------------------
D[-555-5555-777-7777-999-9999-0h222--4b5-------------------------------------
A[-555-xxxx-777-xxxx-999-xxxx-0h222------------------------------------------
D[-555-xxxx-777-xxxx-999-xxxx-0h222------------------------------------------

G[---------------------------------------------------------------------------
D[-555-xxxx-0h222---4-00--2-00--4-00--4-5-4-----4-00--2-00--4-00--4-5-7------
A[-555-xxxx-0h222---4-00--2-00--4-00--4-5-4-----4-00--2-00--4-00--4-5-7------
D[-555-xxxx-0h222---4-00--2-00--4-00--4-5-4-----4-00--2-00--4-00--4-5-7------
Verse2
G[-4------------------------------------------------------------------------
D[-5------4-00--2-00--4-00--4-5-4-----4-00--2-00--4-00--4-5-7---------------
A[-5------4-00--2-00--4-00--4-5-4-----4-00--2-00--4-00--4-5-7---------------
D[-5------4-00--2-00--4-00--4-5-4-----4-00--2-00--4-00--4-5-7---------------
G[-4------------------------------------------------------------------------
D[-5------4-00--2-00--4-00--4-5-4-----4-00--2-00--4-00--4-5-7---------------
A[-5------4-00--2-00--4-00--4-5-4-----4-00--2-00--4-00--4-5-7---------------
D[-5------4-00--2-00--4-00--4-5-4-----4-00--2-00--4-00--4-5-7---------------
Chorus2
G[-----****-----****-----****-----------------------------------------------
D[-555-5555-777-7777-999-9999-0h222--4b5------------------------------------
A[-555-xxxx-777-xxxx-999-xxxx-0h222-----------------------------------------
D[-555-xxxx-777-xxxx-999-xxxx-0h222-----------------------------------------
G[--------------------------------------------------------------------------
D[-555-xxxx-222--4b5-555-xxxx-0h222-----------------------------------------
A[-555-xxxx-222------555-xxxx-0h222-----------------------------------------
D[-555-xxxx-222------555-xxxx-0h222-----------------------------------------
G[-----****-----****-----****-----------------------------------------------
D[-555-5555-777-7777-999-9999-0h222--4b5------------------------------------
A[-555-xxxx-777-xxxx-999-xxxx-0h222-----------------------------------------
D[-555-xxxx-777-xxxx-999-xxxx-0h222-----------------------------------------
G[--------------------------------------------------------------------------
D[-555-xxxx-0h222-xxxx------------------------------------------------------
A[-555-xxxx-0h222-xxxx------------------------------------------------------
D[-555-xxxx-0h222-xxxx------------------------------------------------------
Intro4
G[--------------------------------------------------------------------------
D[999----------777----------222-4b5p4--0-2-000-2-12-------------------------
A[999--9b10p9--777--9b10p9--222--------0-2-000-2-12-------------------------
D[999----------777----------222--------0-2-000-2-12-------------------------
Intro5
G[444-----------------------------------------------------------------------
D[444-4b5p4--777---------222-4b5p4--44444444--------------------------------
A[222--------777-9b10p9--222--------44444444--------------------------------
D[-----------777---------222--------44444444--------------------------------
Lead during Intro5
G[-11b12p11-9----11---------------------------------------------------------
D[------------12----12-11---------------------------------------------------
A[------------------------12-12b13------------------------------------------
D[--------------------------------------------------------------------------

Bridge
E[-0000--0000--0000--0000--0000--0000--0000--0000---------------------------
B[-3333--3333--3333--3333--3333--3333--3333--3333---------------------------
G[-2222--2222--2222--2222--2222--0000--0000--2222---------------------------
D[-0000--0000--0000--0000--0000--2222--2222---------------------------------
A[-0000--0000--0000--0000--0000--2222--3333---------------------------------
D[-0000--5555--0000--5555--------2222--------5555---------------------------
Chorus3
G[-2--7-7-7-7-7-7-7---2---11-11-11-11-11-11-11------------------------------
D[-0--0-0-0-0-0-0-0---0---0--0--0--0--0--0--0-------------------------------
A[-0--5-5-5-5-5-5-5---0---9--9--9--9--9--9--9------------------------------
D[-0--0-0-0-0-0-0-0---0---0--0--0--0--0--0--0-------------------------------
G[-2--7-7-7-7-7-7-7---2---11-11-11-11-11-11-11------------------------------
D[-0--0-0-0-0-0-0-0---0---0--0--0--0--0--0--0-------------------------------
A[-0--5-5-5-5-5-5-5---0---9--9--9--9--9--9--9-------------------------------
D[-0--0-0-0-0-0-0-0---5---0--0--0--0--0--0--0-------------------------------
G[-2--7-7-7-7-7-7-7---2---11-11-11-11-11-11-11------------------------------
D[-0--0-0-0-0-0-0-0---0---0--0--0--0--0--0--0-------------------------------
A[-0--5-5-5-5-5-5-5---0---9--9--9--9--9--9--9-------------------------------
D[-0--0-0-0-0-0-0-0---5---0--0--0--0--0--0--0-------------------------------
G[-2--2-2-2-2-2-2-2---2---11-11-11-11-11-11-11------------------------------
D[-0--0-0-0-0-0-0-0---0---0--0--0--0--0--0--0-------------------------------
A[-0--0-0-0-0-0-0-0---0---9--9--9--9--9--9--9-------------------------------
D[-0--0-0-0-0-0-0-0---5---0--0--0--0--0--0--0-------------------------------
Outro
G[--------------------------------------------------------------------------
D[999----------777----------2-----------------------------------------------
A[999--9b10p9--777--9b10p9--2-----------------------------------------------
D[999----------777----------2-----------------------------------------------
* Lines with an asterisk denote harmonics
FLOW
Intro1
Intro2
Intro3
Verse1
Fumbling his confidence and wondering
Why the world has passed him by
Hoping that he’s bent for more
Than arguments and failed attempts to fly
Chorus
We were meant to live for so much more
Have we lost ourselves?
Somewhere we live inside
Somewhere we live inside
Verse2
Dreaming about providence and
Whether mice or men get second tries
Maybe we’ve been living with our eyes half open
Maybe we’re bent and broken
Chorus2
We were meant to live for so much more
Have we lost ourselves?
Somewhere we live inside
Somewhere we live inside
Intro4
Intro5
Bridge
We want more than this world’s got to offer
We want more that the wars of our fathers
And everything inside screams for second life
We were meant to live
Chorus3
We were meant to live for so much more
Have we lost ourselves?
Somewhere we live inside
Somewhere we live inside
Outro
Tabbed by Robby Valderrama
www.celede.net




Ваше мнение



Капча