Intro> Verse>
e|-----------------------------|-------------------------|
b|----3------3------3------3---|----3------3-------------|
g|---0-0----0-0----0-0----0-0--|---0-0----0-0------4---3-|
d|--4---4--4---4--4---4--4---4-|--4---4--4---4-----------|
a|-----------------------------|-2------0---------5---4--|
e|-0------3-----0-------3------|-----------------3---2---|
e|-----------------------|
b|--------------0--------|
g|----------1h2---2-1----|
d|-7---7-------------0---|
a|-----0--------------0--|
e|-7---7--4------------0-|
e|----------------------
b|-3--2-----------------
g|-2--3--4--3-----------
d|----4--5--4----0---0--
a|-2--1--5--4---2---4---
e|-------3--2--3---2----
e|-----------7-------9-------------7-------6--
b|-3--3------------------3--3-----------------
g|-4--4--4--(4)--3--(6)--4--4--4--(4)--3--(3)-
d|-4--4--5-------4-------4--4--5-------4------
a|-2--0--5-------4-------2--0--5-------4------
e|-------3-------2-------------3-------2------
e|---------------
b|------------0--
g|-2--2--1-1h2-1-
d|-0--0--2-------
a|-2--0--2-------
e|---------------
Bm F#/A#
G F# G A
CHORUS>
(D A Bm G) x2
Bm G Bm G A
Then:
(D G D A) x2
Bm (7997xx) A# (6x46xx)
A (5x44xx) G# (4x44xx)
G A G A
CHORUS>
End- play Intro.




Ваше мнение



Капча