Intro:
E|---------------------------------------------------------------------
B|---------------------------------------------------------------------
G|---1---1---1-2p1----4--4---4--------1-1-----1---1---4---4---4-6-4----
D|-----2----------2------------2p1--------2-----2-------------2-2-2----
A|---------0--------4--2---0------2---------0-------4---2---0----------
E|-0--------------------------------0----------------------------------

Verse: x4
E|---------------------------------------------------------------------
B|---------------------------------------------------------------------
G|---1---1---1---1---4---4---4---4-------------------------------------
D|-----2-------2---------------2---------------------------------------
A|---------0-------4---2---0-------------------------------------------
E|-0-------------------------------------------------------------------

Prechorus:
E|---------------------------------------------------------------------
B|-----0-----0---------0-----0---------0-----0-------------------------
G|---3---3-----2-----1---1-----2-----3---3-----2-----1---1---2---2-----
D|---------------2---------------2---------------2-----2-------2-------
A|---------0---------------0---------------0---------------0-----------
E|-2---------------0---------------2---------------0-------------------

Chorus: () x3 then:
E|-(-----------------)-------------------------------------------------
B|-(-----------------)-------------------------------------------------
G|-(---4---4---4---4-)-----4---4---------------------------------------
D|-(-----4-------2---)-------------------------------------------------
A|-(-2-------0-------)---0---2-----------------------------------------
E|-(-----------------)-------------------------------------------------

Lead into verse:
E|---------------------------------------------------------------------
B|-----0---------------------------------------------------------------
G|---1---1---2-2p1-----4---4---4-6-4-----------------------------------
D|-----------------2-----------2-2-2-----------------------------------
A|---------0---------4---2---0-----------------------------------------
E|-0-------------------------------------------------------------------

Verse x2

2nd Prechorus:
E|---------------------------------------------------------------------
B|-----0-----0---------0-----0---------0-----0-------0-------0---------
G|---3---3-----2-----1---1-----2-----3---3-----2-------1-------2-------
D|---------------2---------------2---------------2-------2-------2-----
A|---------0---------------0---------------0---------------0-----------
E|-2---------------0---------------2---------------0-------------------

Chorus: Play () x3 then:
E|-(-----------------)-------------------------------------------------
B|-(-----------------)-------------------0-----------------------------
G|-(---4---4---4---4-)---------4---4---1---1---------------------------
D|-(-----4-------2---)-----------4-------------------------------------
A|-(-2-------0-------)-------2-----------------------------------------
E|-(-----------------)---------------0---------------------------------

Then play first chorus

Ending:
E|------------------------------------------------------------------
B|-----0------------------------------------0-----------------------
G|---1---1---2-2p1-----4---4---4----------1---1---2-2p1-----4---4---
D|-----------------2-------------2//4-2-----------------2-----------
A|---------0---------4---2---0------------------0---------4---2---0-
E|-0------------------------------------0---------------------------

E|---------------------------------------------------------------------
B|-----------0---------------------------------------------------------
G|-4---------1---------------------------------------------------------
D|-2-2//1----2---------------------------------------------------------
A|--------2--2---------------------------------------------------------
E|-----------0---------------------------------------------------------




Ваше мнение



Капча