Title:Incomplete
Artist:Switchfoot
Album:New Way to Be Human
(C) Meadowgreen music/Sugar Pete Songs/ASCAP/Khamara's last songs/BMI
Tabbed by Racer

Intro after guitar and drums....
G-----------------------------
D-----------------------------
A ------------7----------0-1-2
E 12s0-14s7s0---7-0-12s0------

Verse 1 x4
G-------------------
D-------------------
A---7----------0-1-2
E-0---7-0-12s0------

Pre-chorus
G---------------------------------------------------
D---------------------------------------------------
A-------3-3-3xxxxxxx-------3-3-3-3-3-2-2-2-2-2-2-2-2
E 0-2-3--------------0-2-3--------------------------
Chorus
G----------------------------------------------------------
D-------------------------------------------7-7-6-6--------
A-0-0-0-2-0-2s7-7-7-7-7-7-7-7-9-9-9-9-9-7-9---------9-9-7-7
E----------------------------------------------------------

G---------------------------------------------------
D---------------------------------------------------
A-4-4-4-4-4-------------------------------7-7-7-7--7
E-----------4-4-4-4-4-5-5-5-5-5-7-7-7-7-7-----------

G----------------------------------------------------
D----------------------------------------------------
A-0-0-0-0-0-0-0-0-4-4-4-4-4-4------------------------
E-----------------------------4-4-4-4-4-4-5-5-5-5-5-5

G--------------
D--------------
A--------------
E-7-7-7-7-7-7--

The 2nd verse is just a variation of the first and the
little stick riffs are just octave notes. Any questions?
[email protected]




Ваше мнение



Капча