Title:Chem6A
Artist:Switchfoot
Album:Legend of Chin
(C)1997 Meadowgreen music/Sugar Pete Songs/ASCAP
Tabbed by Racer

Intro/Verse
G------------------4p2h4----------------
D------------------------------------0h2
A--------------2-2-------3-3-0h3-5-5----
E-3s10-3-3-0h3--------------------------

G-------------4p2h4------------------
D------------------------------------
A---------2-2-------3-3-0h3-5--------
E-3-3-0h3------------------------10-

Chorus
G------------------------------------------------------------
D------------------------------------------------------------
A-----------------------------------------3-3-3-3-3----------
E-0-0-0-0-0-3-3-3-3-3-0-0-0-0-0-5-5-5-5-5-----------3-3-3-3-3

G--------------------------------------------------------------
D--------------------------------------------------------------
A-----3-----------------------------------------------3-3-3-3-3
E-------3-----0-0-0-0-0-3-3-3-3-3-0-0-0-0-0-5-5-5-5-5----------

G-------------------------
D-------------------------
A-----------1-1----1-1---1
E-3-3-3-3-3---------------

That's it. Any Switchfoot bass questions?? [email protected]




Ваше мнение



Капча