Amy's Song
Artist: Switchfoot
Album: New Way To Be Human
Copyright 1999 Meadowgreen Music / Sugar Pete Songs / ASCAP
Tabbed by Marcus Campbell([email protected])
D5 057xxx
Bm5sus 99,11,xxx
G5sus 557xxx
A#5 888xxx
A5 777xxx
NOTE:
(#) = optional notes
riff (basic structure):
|-----------------------------|
|-----------------------------|
|-----------------------------|
|-----------------------------|
|-(0)(0)---5-(5)(5)(5)--------|
|--0--0-/7----5--5--5--6--7---|
Drop D Tuning (DADGBE)
Amy's Song
D|------0-------0-------------|
A|----0-------0---------------| (finger-picked)
D|--0-------5-----------------|
D|------7-------0-------------|
A|----0-------0---------------| (finger-picked)
D|--0------/5-----------------|
D|------4-0------0---------0--|
A|----0--------0---------0----| (finger-picked)
D|--0--------5---------0------|
Verse:
riff...
Chorus: x2
D5 Bm5sus G5sus
A#5 A5 D5
E|-------------------|
B|--5/^7-------------|
G|--------7----------|
D|---------------(0)-|
A|-----------4-5--0--|
D|----------------0--|
VERSE
CHORUS
D|------0------0------7------4------0------0------0--|
A|----0------0------0------0------0------0------0----|(finger-picked)
D|--0------5------0------0------0------5------0------|
(no chord)
D|-----0-------------------0-------------|
A|---0-------------------0---------------| (finger-picked)
D|-0-------------------5-----------------|
D|----------4-0----------0--|
A|--------0------------0----| (finger-picked)
D|------0------------5------|
D|------2-0---------------0--|
A|----0-----------------0----| (finger-picked)
D|--0-----------------5------|
D|------0------------------------|
A|----0--------------------------| (finger-picked until pickups)
D|--0---------------5--5--5-6-7--|
CHORUS
D|------4~-----0------7/4------0------7-4-0--0---0----0--|
A|----0------0------0--------0------0----------0-----0---|
D|--0------5------0--------5------0----------5------0----|
Repeat




Ваше мнение



Капча