Received: from animal-farm.nevada.edu by redrock.nevada.edu (5.65c/M1.4)
With SMTP id ; Wed, 10 Mar 1993 15:56:30 -0800
Received: from ucscb.UCSC.EDU by animal-farm.nevada.edu id ; Wed, 10 Mar 1993 15:56:26 -0800
Received: by ucscb.UCSC.EDU (5.65/1.34)
Id AA21351; Wed, 10 Mar 93 15:56:13 -0800
Date: Wed, 10 Mar 93 15:56:13 -0800
From: [email protected] (Adam Schneider)
Message-Id:
To: [email protected]
Subject: Suzy_Bogguss/LetGoodbyeHurt.tab

LET GOODBYE HURT (by Ellen Crandall; recorded by Suzy Bogguss)
-----------------------------------------------------------
Dsus9 C(9) G/B Dsus9
E ------0-------0-|------0---------|----------------|------0-------0-|
B ----3-----3-----|--3-------3-----|----------------|----3-----3-----|
G --2---------2---|----2-----------|----0-----0-----|--2---------2---| etc.
D 0-------0-------|0-------0-------|--2-----0-------|0-------0-------|
A ----------------|------------0-2-|3-----2---------|0---------------|
E ----------------|----------------|------------3---|----------------|
^ . ^ . ^ . ^ . ^ . ^ . ^ . ^ . ^ . ^ . ^ . ^ . ^ . ^ . ^ . ^ .
I think the verses use pretty much the same chords as the intro, but for
Longer durations. The chorus starts out with Bm7 and A, but after that I'm
Lost...
==-=--=---=----=-----=-------=---------=---------=-------=-----=----=---=--=-==
Adam Schneider [email protected] U.C. Santa Cruz
Your actions will follow you full circle 'round...
==-=--=---=----=-----=-------=---------=---------=-------=-----=----=---=--=-==




Ваше мнение



Капча