Received: from ucscb.UCSC.EDU (ucscb.UCSC.EDU [128.114.2.8]) by post-office.nevada.edu (8.6.4/8.6.4) with SMTP id NAA28796 for ; Thu, 17 Feb 1994 13:39:06 -0800
Received: by ucscb.UCSC.EDU (5.65/1.34)
Id AA17200; Thu, 17 Feb 94 13:39:00 -0800
Date: Thu, 17 Feb 94 13:39:00 -0800
From: [email protected] (Adam Schneider)
Message-Id:
To: [email protected]
Subject: /b/Suzy.Bogguss/JustLikeTheWeather.tab (UPDATE)
James:
Please replace the current file with this one. I screwed something
Up the first time. Thanks.
Adam

JUST LIKE THE WEATHER (Suzy Bogguss, Doug Crider)
-------------------------------------------------
[Play in C, or capo 5 and play in G.]
C C Am Am C C Am Am
[intro]
C F Am G
The wind is blowing from a new direction
C F G G
You're thinking 'bout going, I know
C F Am G
It's been a long season, and hard on our affections
F F G G
But that's no reason to let go
C F/C C C - C/B
You change just like the weather
Am Am G G
But the weather you know will always change
C C7/Bb F F
If you stay it'll get better
C G C C Am Am C C Am Am
Wherever you go, it's bound to rain
C F Am G
So put on your jacket and stand your ground
C F G G
Love's gonna have its highs and lows
C F Am G
If we turn and face it, the wind will come around
F F G G
You don't have to chase it when it blows
C F/C C C - C/B
You change just like the weather
Am Am G G
But the weather you know will always change
C C7/Bb F F
If you stay it'll get better
C G C F Am G F F G G
Wherever you go, it's bound to rain [guitar solo]
C F/C C C - C/B
You change just like the weather
Am Am G G
But the weather you know will always change
C C7/Bb F F
If you stay it'll get better
C G C C Am Am
Wherever you go, it's bound to rain
C C Am Am C.
You change just like the weather

GUITAR SOLO:
C F Am G
E ----------------|----------------|----------------|----------------|
B ----------------|----------------|----------------|----------------|
G ----------------|----------------|----------------|----------------|
D ----2---0-2---3-|----2---0-------|----2---0-2---0-|----------------|
A ------3---------|------------3---|------3---------|----3---2-0-----|
E ----------------|----------------|----------------|------------3---|
^ . ^ . ^ . ^ . ^ . ^ . ^ . ^ . ^ . ^ . ^ . ^ . ^ . ^ . ^ . ^ .
F F G G
E ----------------|----------------|----------------|----------------|
B ----------------|----------------|----------------|----------------|
G ----2---0-2---5-|--2---0---2---5-|--4-2-0---------|---------(0-2)--|
D 3-----3---------|----------------|--------3-2-0---|----0-2-3-------|
A ----------------|----------------|--------------3-|2-3-------------|
E ----------------|----------------|----------------|----------------|
^ . ^ . ^ . ^ . ^ . ^ . ^ . ^ . ^ . ^ . ^ . ^ . ^ . ^ . ^ . ^ .




Ваше мнение



Капча