originally tabbed by [email protected] (Adam Schneider)
modified by Bambi Kill ([email protected])
LUKA (Suzanne Vega)
-------------------
[Actually in F#; capo at the 2nd fret.]
[E: 022100 Bsus4: x24400 Asus2: x02200 C#m7: x46630]
Here are all the components of the song. there is some variation in the
finger-picking pattern, but the chord forms remain the same always.
E Bsus4 Asus2 Bsus4
E ----------------|--------0-------|--------0-------|--------0-------|
B ----------------|----0-----0-----|----0-----0-----|----0-----0-----|
G ----1-----1-----|--4-------------|2---------------|--4---4-----4---|
D ----2-----2-----|----4-----------|----2-----------|----4-----------|
A ----2-----2-----|--2-------------|0---------------|--2-------------|
E 0---------------|----------------|----------------|----------------|
^ . ^ . ^ . ^ . ^ . ^ . ^ . ^ . ^ . ^ . ^ . ^ . ^ . ^ . ^ . ^ .
C#m7 Bsus4 C#m7 Bsus4
E ----0-------0---|----0-------0---|----0-------0---|----0-------0---|
B 5-----0-------0-|--0---0---0---0-|5-----0-------0-|--0---0---0---0-|
G ----------------|4-------4-------|----------------|4-------4-------|
D --6-------6-----|--4-------4-----|--6-------6-----|--4-------4-----|
A 4-------4-------|2-------2-------|4-------4-------|2-------2-------|
E ----------------|----------------|----------------|----------------|
^ . ^ . ^ . ^ . ^ . ^ . ^ . ^ . ^ . ^ . ^ . ^ . ^ . ^ . ^ . ^ .
Asus2 Bsus4 Asus2 Bsus4
E ----------------|----0-------0---|----------------|-----0-------0---|
B ----0-----0-----|--0---0---0---0-|----0-----0-----|---0---0---0---0-|
G ----2-----2-----|4-------4-------|----2-----2-----|-4-------4-------|
D ----2-----2-----|--4-------4-----|----2-----2-----|---4-------4-----|
A 0---------------|2-------2-------|0---------------|-2-------2-------|
E ----------------|----------------|----------------|-----------------|
^ . ^ . ^ . ^ . ^ . ^ . ^ . ^ . ^ . ^ . ^ . ^ . ^ . ^ . ^ . ^ .
E Bsus4 Asus2 Bsus4
[intro; just one guitar]
C#m7 Bsus4 C#m7 Bsus4 Asus2 Bsus4 Asus2 Bsus4
[intro; whole band comes in]
E Bsus4
My name is Luka
Asus2 Bsus4
I live on the second floor
E Bsus4
I live upstairs from you
Asus9 Bsus4
Yes I think you've seen me before
C#m7 Bsus4 C#m7
If you hear something late at night
Bsus4 Asus2
Some kind of trouble, some kind of fight
Bsus4
Just don't ask me what it was
Asus2 Bsus4
Just don't ask me what it was
Asus2 Bsus4
Just don't ask me what it was
Maybe it's because I'm clumsy
I try not to talk too loud
Maybe it's because I'm crazy
I try not to act too proud
They only hit until you cry
And after that you don't ask why
You just don't argue anymore
You just don't argue anymore
You just don't argue anymore
E Bsus4 Asus2 Bsus4 E Bsus4 Asus2 Bsus4
[guitar solo]
Yes, I think I'm okay
Walked into the door again
If you ask that's what I'll say
And it's not your business anyway
I guess I'd like to be alone
With nothing broken, nothing thrown
Just don't ask me how I am
Just don't ask me how I am
Just don't ask me how I am
My name is Luka
I live on the second floor
I live upstairs from you
Yes I think you've seen me before
If you hear something late at night
Some kind of trouble, some kind of fight
Just don't ask me what it was
Just don't ask me what it was
Just don't ask me what it was
And they only hit until you cry
And after that you don't ask why
You just don't argue anymore
You just don't argue anymore
You just don't argue anymore
E Bsus4 Asus2 Bsus4 E Bsus4 Asus2 Bsus4 C#m7 Bsus4 Asus2 Bsus4 E.
[instrumental]




Ваше мнение



Капча