t. See http://www.olga.net/faq/ for more information. #
From: "Chris Ntaifotis"
Subject: s/survivor/eye_of_the_tiger.crd
Date: Sat, 2 Oct 1999 18:24:48 +0300
Author/Artist: Survivor
Title: Eye of the tiger
Transcribed by: Electric
Email: [email protected]
Eye of the tiger/Survivor

Intro
--------------------------------------------
-------------------------------------------- (2x)
--------------------------------------------
-10---10-8--10--10-8--10--10-5--6-----------
-10---10-8--10--10-8--10--10-5--6-----------
-8----8--6--8---8--6--8---8--3--4-----------

--------------------------------------------
-------------------------------------------- (2x)
-5-----8--7--8---8--7--8---8-------------5--
-5-----8--7--8---8--7--8---8--5--6-------5--
-3-----6--5--6---6--5--6---6--5--6-------3--
------------------------------3--4----------

Chorus
--------------------------------------------
-------------------------------------------- (3x)
-------8-------7----------------------------
-6-----8-------7----------------------------
-6-----6-------5----------------------------
-4------------------------------------------
=
--------------------------------------------
--------------------------------------------
----10-8---10-12--10---12--13---------------
-6--10-8---10-12--10---12--13---------------
-6--8--6---8--10--8----10--11---------------
-4------------------------------------------

Use a lot of palm mute and that's it

Song structure:(guitar parts)
Intro
Chorus
Chorus
Chorus
Intro

For any questions,corrections or add-ons send e-mail.
Enjoy.




Ваше мнение



Капча