t. See http://www.olga.net/faq/ for more information. #
Date: Tue, 28 Mar 2000 16:03:38 -0500
From: [email protected]
Subject: s/supergrass/your_love.tab
YOUR LOVE By Supergrass from the album SUPERGRASS (99)
------------------------------------------------------
Tabbed by [email protected]
RIFF PLAYED ALONG VERSES:
-----------------------I
-----------------------I
--7b9r7--5-------------I
-----------5b6--5---5--I
------------------7----I
-----------------------I
VERSE1:
=20
play the riff
CHORUS:=20
F Eb F Eb F Eb C Bb
--8---6---8---6---8---6---8---6---
--10--8---10--8---10--8---8---6---
--10--8---10--8---10--8---9---7---
--10--8---10--8---10--8---10--8---
--8---6---8---6---8---6---10--8---
--8---6---8---6---8---6---8---6---
=20
VERSE2:
play the riff
=20
CHORUS:
F Eb F Eb F Eb C Bb
--8---6---8---6---8---6---8---6---
--10--8---10--8---10--8---8---6---
--10--8---10--8---10--8---9---7---
--10--8---10--8---10--8---10--8---
--8---6---8---6---8---6---10--8---
--8---6---8---6---8---6---8---6---
BRIDGE:
F (x2) C =20
--0--2--3--------1--------1--I
---------------1--------1----I
-------------2--------2------I
-----------3--------3--------I
-----------------------------I
-----------------------------I
=20
SOLO:
played on the verse riff
let ring...
------------------------------------------------------------------------I
----------5-------------------------------5-----------------------------I
-7b9r7--5---7--5--4-5-4---------------------7-5-4-4h5-4-----5-4-----7b9~I
--------------------------7-5--5h7--5--------------------7-5-----7-5----I
--------------------------------------7-3-------------------------------I
------------------------------------------------------------------------I
CHORUS
VERSE RIFF (keybords solo)

ENJOY!!





Ваше мнение



Капча