From: Kevin Mulhern
Subject: Shes So Loose, Supergrass
Date: Tue, 3 Oct 1995 14:04:32 +0100
Heres one of the best tunes ( In fact, they are all SUPERB )
from the " I Sould CoCo " album.
Shes So Loose
by
SUPERGRASS
INTRO:
The intro is just one chord " F something " I don't
know the name of it, It is x33200
I think its some sort of Fmaj7, so I'll just
write it as Fmaj7, so if you see
Fmaj7 you'll know what mean
You'll have to listen to the song a few times to
get the strumming pattern.

VERSE 1:
Fmaj7 Esus4 E
Take my love away
Fmaj7 A
Its never gonna work for you
CHORUS:
Am
Well I met her at night
Fmaj7
You know that seeing is believing
C
I know the feeling was right
B
Well she couldn't stop screaming
Em (12 fret)
And she swallowed it down
C
To the heart of the world
A F C
Shes So Loose
E
Shes so loose
You go back to Fmaj7 now and play the intro again
VERSE 2:
Fmaj7 Esus4 E
Take these wings away
Fmaj7 A
There never gonna work for me
CHORUS:
Am
Well I met her at night
Fmaj7
You know that seeing is believing
C
I know the feeling was right
B
Well she couldn't stop screaming
Em(12th fret)
Its getting harder again
C
In the heart of the world
Now you DON'T play this, this time
( A F C )
( Shes So Loose )

Instead play this:
A F G G G# A
E|-5--5--5-|-1--1--1-|-3--3--3-|-1--1--1-|-3--3--3-|-4--4--4-|-5--|
B|-5--5--5-|-1--1--1-|-3--3--3-|-1--1--1-|-3--3--3-|-4--4--4-|-5--|
G|-6--6--6-|-2--2--2-|-4--4--4-|-2--2--2-|-4--4--4-|-5--5--5-|-6--|
D|-7--7--7-|-3--3--3-|-5--5--5-|-3--3--3-|-5--5--5-|-6--6--6-|-7--|
A|-7--7--7-|-3--3--3-|-5--5--5-|-3--3--3-|-5--5--5-|-6--6--6-|-7--|
E|-5--5--5-|-1--1--1-|-3--3--3-|-1--1--1-|-3--3--3-|-4--4--4-|-5--|
Now you go into the solo ( it isn't 100% correct but its as close as
i can get it )
E|----------|----------|-----------|----------|-----------------------|
B|----------|----------|-----------|----------|-----------------------|
G|------5~~-|------5~~-|-------5~~-|------5~~-|-5\\\1///5\\\1///5\4~~-| D|-5-5-7
----|-5-5-7----|--5-5-7----|-5-5-7----|-----------------------|
A|----------|----------|-----------|----------|-----------------------|
E|----------|----------|-----------|----------|-----------------------|
In the last barr only pick on 5th fret and slide
down and up
E|-----------|-----------|---------------|---------------|-----------|
B|-----------|-----------|---------------|---------------|-----------| G|-4-5-4-
2-4-|-4--4--4---|-4-5--4-5-4--2-|--4-4--5-4-5-4-|--2- -5-5--|
D|-----------|--2--2---2-|---------------|---------------|-----------| A|-------
----|--0--0---0-|---------------|---------------|-----------|
E|-----------|-----------|---------------|---------------|-----------|
If you don't think it is right you can
fiddle around with it a bit if you want
Now you play the chorus again
CHORUS:
Am
Well I met her at night
Fmaj7
You know that seeing is believing
C
I know the feeling was right
B
Well she couldn't stop screaming
Em(12th fret)
She swallowed it down
C
To the heart of the world
A F C
Shes So Loose
Fmaj7= x33200
Esus4= 0222xx
This is a brilliant song to play and to listen too.
Play it too your hearts content!!!!!!
If your see any big mistakes then let me know!!!!
HAPPY PLAYING!!!!!!
Tabbed by:
____________________________
/ \
| Andrew Mulhern |
| **************** |
|~~~~~~~~~~~~~~~~~~~~~~~~~~~~~~|
\ I am Today /
\ You are Tomorrow /
/ I Light the Way \
/ While you Drown the Sorrow \
\------------------------------/
******************************





Ваше мнение



Капча