t. See http://www.olga.net/faq/ for more information. #
Date: Tue, 28 Mar 2000 16:07:26 -0500
From: [email protected]
Subject: s/supergrass/pumping_on_your_stereo.tab
PUMPING ON YOUR STEREO By Supergrass from the album SUPERGRASS (99)
-------------------------------------------------------------------
Tabbed by [email protected]
INTRO:
D/--7--9-- + feedback (x4)

RIFF PLAYED IN VERSES AND CHORUS:
D E
---------------------------------------------------I (x4)
--7--8--x--x--7--8---9--9--10--x--x--9--9--10--10--I
--7--7--x--x--7--7---9--9--9---x--x--9--9--9---9---I
--7--9--x--x--7--9---9--9--11--x--x--9--9--11--11--I
---------------------------------------------------I
---------------------------------------------------I
B/--7b8--7b9--
VERSE1: play the riff 4 times=20
PRE-CHORUS:
F A*
--1----0--
--1----2--
--2----2--
--3----2--
--3----0--
--1-------
*play this little riff
B/--14s--12s--10s--9s--
CHORUS:play the riff twice
VERSE2:play the riff four times
PRE-CHORUS:
F A*
--1----0--
--1----2--
--2----2--
--3----2--
--3----0--
--1-------
*play this little riff
B/--14s--12s--10s--9s--
C G*
--0---3--
--1---0--
--0---0--
--2---0--
--3---2--
------3--
*
e/--s15s--
e/--3s5--
B/--3s5--
CHORUS: play the riff 4 times
B/--7b8--7b9--
VERSE3: play the riff 4 times
PRE-CHORUS:
F A*
--1----0--
--1----2--
--2----2--
--3----2--
--3----0--
--1-------
*play this little riff
B/--14s--12s--10s--9s--
C G*
--0---3--
--1---0--
--0---0--
--2---0--
--3---2--
------3--
*
e/--s15s--
e/--3s5--
B/--3s5--

CHORUS: don't play anything here, just the piano
SOLO: play it on the RIFF
let ring...
--------------------------7------7------7----------------------
---------------------7h9----7h9----7h9-------------------------
-------------------------------------------4--4--4--2s1--1~----
--0--0--0--0---0h2~--------------------------------------------
-------------2-------------------------------------------------
---------------------------------------------------------------
------7-----7-----7-
--7h9---7h9---7h9---
--------------------
--------------------
--------------------
--------------------
----------------------------12-------12-------12---------------
----------------------12h14----12h14----12h14----12-12-10s9--9-
--7--7--7--7---7--7h9------------------------------------------
-------------9-------------------------------------------------
---------------------------------------------------------------
---------------------------------------------------------------
END on a F
ENJOY!!





Ваше мнение



Капча