t. See http://www.olga.net/faq/ for more information. #
Date: Tue, 28 Mar 2000 15:58:59 -0500
From: [email protected]
Subject: s/supergrass/moving.tab
MOVING By Supergrass from the album SUPERGRASS (99)
---------------------------------------------------
Tabbed by [email protected]
VERSE 1: clean sound
CMaj7 Em C Am B5 B
---7-----0----0----0----2----2--- (x2)
---8-----0----1----1----2----4---
---9-----0----0----2----4----4---
---10----2----2----2----4----4---
---------2----3----0----2----2---
---------2-------------------2---
CHORUS
Play this riff along
Bm A Em
-----7-----5-----------------------I=20
-----7-----5--7-7--8--7--7-7--8--7-I
-----7-----6--7-7--7--7--7-7--7--7-I
--9--9--7--7--7h9--7--7--7h9--7--7-I
--9-----7--------------------------I
--7-----5--------------------------I
play this riff in the end:
---------------------I
----7----------------I
------6--8--8--8--8--I
--9------9--9--9--9--I
---------9--9--9--9--I
---------7--7--7--7--I
VERSE 2: clean sound
CMaj7 Em C Am B5 B
---7-----0----0----0----2----2--- (x2)
---8-----0----1----1----2----4---
---9-----0----0----2----4----4---
---10----2----2----2----4----4---
---------2----3----0----2----2---
---------2-------------------2---
CHORUS
Play this riff along
Bm A Em
-----7-----5-----------------------I=20
-----7-----5--7-7--8--7--7-7--8--7-I
-----7-----6--7-7--7--7--7-7--7--7-I
--9--9--7--7--7h9--7--7--7h9--7--7-I
--9-----7--------------------------I
--7-----5--------------------------I
play this riff in the end:
---------------------I
----7----------------I
------6--8--8--8--8--I
--9------9--9--9--9--I
---------9--9--9--9--I
---------7--7--7--7--I
SOLO:
played on the verses chords
let ring...
-------------------------------------------------------------------------= I
----------------------------------5s7--7~--7s8---8-8h10--7~-7-7h8-7-5-3--= I
--9-7~-------9-7~-7s9--7--5--4--4----------------------------------------= I
-------7-7h9-----------------------------------9-------------------------= I
-------------------------------------------------------------------------= I
-------------------------------------------------------------------------= I
-------------12--10--7--5~--5h7--7s8--7--5-------------------------------= I
--0------8s--------------------------------7s8--7s4---5-5s7--7h8-7--5----= I
----2--0--------------------------------------------4-----------------7--= I
-------------------------------------------------------------------------= I
-------------------------------------------------------------------------= I
-------------------------------------------------------------------------= I
and then go back to the beginning of the solo until the song ends...

ENJOY!!





Ваше мнение



Капча