t. See http://www.olga.net/faq/ for more information. #
Date: Tue, 28 Mar 2000 16:05:01 -0500
From: [email protected]
Subject: s/supergrass/mary.tab
MARY By Supergrass from the album SUPERGRASS (99)
-------------------------------------------------
Tabbed by [email protected]
INTRO:
G/--13--10--12-- + feedback (x4)
VERSE1:=20
G# F Cm (x4)
--4---1---3--
--4---1---4--
--5---2---5--
--6---3---5--
-------------
-------------
=20
PRE-CHORUS: G#5 / F5 / Cm5 / D#m5 (x2)
let ring...
-------------------------------------------------------I
--9--6--------------------------------------------13~--I
-------7b8r7--5--7b8--r7--b8--r7--b8--r7--5--5s10------I
-------------------------------------------------------I
-------------------------------------------------------I
-------------------------------------------------------I
CHORUS:=20
G#5 F5 Cm5 D#m5 (x2)
----------------------
----------------------
----------------------
---6---3---10----13---
---6---3---10----13---
---4---1----8----11---
Ah Ah Ah Ah Ah Ah Ah Ah Ay ay ay!
Ah Ah Ah Ah Ah Ah Ah Ah Ay ay ay!
VERSE2: =20
G# F Cm (x4)
--4---1---3--
--4---1---4--
--5---2---5--
--6---3---5--
-------------
-------------=20
PRE-CHORUS: G#5 / F5 / Cm5 / D#m5 (x2)
let ring...
-------------------------------------------------------I
--9--6--------------------------------------------13~--I
-------7b8r7--5--7b8--r7--b8--r7--b8--r7--5--5s10------I
-------------------------------------------------------I
-------------------------------------------------------I
-------------------------------------------------------I=20
CHORUS
G#5 F5 Cm5 D#m5 (x2)
----------------------
----------------------
----------------------
---6---3---10----13---
---6---3---10----13---
---4---1----8----11---
Ah Ah Ah Ah Ah Ah Ah Ah Ay ay ay!
Ah Ah Ah Ah Ah Ah Ah Ah Ay ay ay
BRIDGE:
let ring...
---------------------------------------------------I (x2)
---------------------------------------------------I
---------------------------------------------------I
--6--7--5-------------------------------------10~--I
----------5b6--3--5b6--r5--b6--r5--b6--r5s3s8------I
---------------------------------------------------I
CHORUS
played twice and the last time you can play this:
------------------------------------------I
-----------------------------------13s8s~-I
--7b8--r7--b8--r7--b8--r7--5--5s10--------I
------------------------------------------I
------------------------------------------I
------------------------------------------I
It finishes on a Cm5
ENJOY!!





Ваше мнение



Капча