From: Kevin Mulhern
Subject: Mansize Rooster by Supergrass
Date: Wed, 3 Jan 1996 20:46:55 GMT
1 $
"""""#From: Andrew Mulhern
Subject: Mansize Rooster by Supergrass
Mansize Rooster
by
Supergrass
INTRO:
E|-----------------------------|
B|---3-3--4-4--5-5--4-4--|
G|---4-4--4-4--4-4--4-4--|
D|---5-5--5-5--5-5--5-5--| Repeated
A|-----------------------------|
E|-----------------------------|
VERSE 1:
Wait a minute now you just can't run away
You got no money and you got no place to stay
Things are bad but theres always another way
G
How would you know if you never ever say me
PRE-CHORUS:
C Cm
E|-----------------------------------------------------------------------------|
B|-----------------------------------------------------------------------------|
G|-----------------------------------------------------------------------------|
D|------5--7--5--7b--7--5--7--5------5--7--5--7b--7--5--7--5--0--|
A|---7---------------------------------6--------------------------------------|
E|-----------------------------------------------------------------------------|
Oh no when I look at you I scream
CHORUS:
D7
Why you looking so crazy
D7 G
Why you looking so lonely for love
G Em7
What do you wanna be now
D7
Why you looking so crazy
D7 G
Why you looking so lonely for love
G Em7
What do you wanna see now
BRIDGE:
D7
Wait a minute is all wrong
D7
Wait a minute its all gone wrong
VERSE 2:
Wait a minute now you just can't hide away
You got no money but you got no face to save
You think its bad but theres always another way
G
How would you know if you never ever saw me
PRE-CHORUS
CHORUS
ENDING:
G Em7 Eb
What do you wanna be now oooooh Yeah
G Em7 Eb
What do you wanna see ooooooh Yeah
G Em7 Eb
What do you wanna be ooooooh Yeah
G Em7 Eb
What do you wanna feel oooooooh Yeah
G Em7
E|---3-3-3-3---3-3-3-3---7-7-7-7-7-7--|
B|---3-3-3-3---3-3-3-3---7-8-7-8-7-8--|
G|---0-0-0-0---0-0-0-0---7-7-7-7-7-7--| Repeated to
D|---0-0-0-0---2-2-2-2---7-9-7-9-7-9--| Fade
A|---2-2-2-2---2-2-2-2---------------------|
E|---3-3-3-3---0-0-0-0---------------------|
Note: D7 = x5453x
G = 320033
Em7 = 022033
Eb = x6888x
Tabbed by:
Thanks To Monty :)
--
__________________ _____________________________________________
/ \ / \
| Andrew Mulhern | I am Today, You are Tomorrow |
| ************** | I Light the Way, While You Drown the Sorrow |
\__________________/ \_____________________________________________/
\ [email protected] /
**********************





Ваше мнение



Капча